Corinne Bailey Rae - Night - аккорды

Чайковский в рок-аранжировке! Очень необычно, послушай!
Тональность: 
0
Масштаб: 
100%
Прокрутка: 
0
Проще!
Аппликатуры
Нотный режим
Night
Corinne Bailey Rae
[ Предположительная тональность: D ]

[Chords]

F#dim  xx4545
Em     xx5453
Gm     3xx333
D7M    xx0222


D7M    x5767x
Bm7    797777
B7     797877
Em7    x79787

Em9    022002
F#7    242322
Bm7    x24232
Bm7/A  x04232
Gdim   3x2323

Standard Tuning EADGBe

[Intro]

    F#dim           Em              Gm              D7M  
e|--5---5---5---5---3---3---3---3---3---3---3---3---2---2---2---2------------|
B|--4---4---4---4---5---5---5---5---3---3---3---3---2---2---2---2------------|
G|----5---5---5---5---4---4---4---4-3---3---3---3---2---2---2---2------------|
D|--4---4---4---5---5---5---5---5---------------------0---0---0---0----------|
A|---------------------------------------------------------------------------|
E|------------------------------------3---3---3---3--------------------------|

    F#dim           Em              Gm              D7M  
e|--5---5---5---5---3---3---3---3---3---3---3---3---2---2---2---2------------|
B|--4---4---4---4---5---5---5---5---3---3---3---3---2---2---2---2------------|
G|----5---5---5---5---4---4---4---4-3---3---3---3---2---2---2---2------------|
D|--4---4---4---5---5---5---5---5---------------------0---0---0---0----------|
A|---------------------------------------------------------------------------|
E|------------------------------------3---3---3---3--------------------------|


[Verse]

D7M                      Bm7 B7
Oh, the night is full of miracles
Em7
And silvered with cold
D7M                   Bm7     B7
High up on a hill the rest submit to sleep
Em7
And we are alone

Em9               F#7            Bm7
Can't you see the path that I've chosen?
Em9               F#7             Bm7
Won't you hold my hand until it's over
    Bm7/A       Gdim
And love has created... ?


[Chorus]

F#dim            Em
There was a cool wind
      Gm          D7M  
There was a sharp sting
        F#dim         Em
But you held your courage
     Gm            D7M  
What did the stars sing?

    F#dim                  Em
The night that I looked at you
    Gm                     D7M  
The night that I looked at you
       F#dim                Em
It was more than my heart could do
    Gm
The night when I looked at...


[Verse 2]

D7M                        Bm7      B7
I folded you a prayer with words so fine
Em7
How could you refuse?
D7M                               Bm7    B7
My tears, they fell like diamonds in the light
Em7
The wind was so cruel
Em9               F#7           Bm7
But I can see the kindness that burns in you
Em9          F#7          Bm7        Bm7/A         Gdim
I regard the way that you hold me as wonderful, magical


[Chorus]

F#dim            Em
There was a cool wind
      Gm          D7M  
There was a sharp sting
        F#dim        Em
But you held your courage
     Gm            D7M  
What did the stars sing?

    F#dim                  Em
The night when I looked at you
    Gm                     D7M  
The night when I looked at you
       F#dim                Em
It was more than my heart could do
    Gm                       D7M  
The night when I looked at...

Corinne Bailey Rae - Night - ноты

(включить)
Другие композиции этого автора:
Другие материалы по этой песне:
  • Аккорды, текст

https://primanota.ru/corinne-bailey-rae/night-chords.htm

Привет, гитарист!

Тебе подарок от сайта PrimaNota.ru

Забрать подарок
ВАМ ПОДАРКИ ОТ ПРОЕКТА
"ГИТАРНАЯ РЕВОЛЮЦИЯ"