» 
 » 
Hey I Wont Break Your Heart



Corinne Bailey Rae - Hey I Wont Break Your Heart - табы

Чайковский в рок-аранжировке! Очень необычно, послушай!
-------------------------------------------------------------------------------
                             Hey I Won't Break Your Heart - Corinne Bailey Rae
-------------------------------------------------------------------------------
Tabbed by:majorseventh
E-mail:cwarner3000@gmail.com

Standard tuning EADGBe
Capo 1st fret


Chords

[Verse]

Dsus2  xx0230
D/F#   2x0230
D/G    3x0230
D      xx023x
D/C#   x4023x
Bm7    x24232
Em     022000
A7     x02020
D/C    x30230


[Chorus]

Bm7    024232
Em     022000
E7sus4 020200 
E7     020100
A7     002020


[Bridge and outro]

Bm7     024232
E7sus4  020200
E7      020100
A7      x02020
D       xx0232
D/C#    x4023x
A7sus4  x02030
A7      x02020
D/F#    2x0232
D/G     3x0232


[Verse]

    Dsus2      D/F#      D/G      D     D/C#
e|--------0----------0---------0----------------------------------------------|
B|------3----3-----3---3-----3--------3-----3---------------------------------|
G|----2------2---2-----2---2--------2-----2-----------------------------------|
D|--0-----------------------------0-------------------------------------------|
A|--------------------------------------4-------------------------------------|
E|-------------2---------3----------------------------------------------------|
Here in the twilight of one endless summer
    Bm7         Em          A7        Dsus2   
e|--------2---------------------------------0---------------------------------|
B|--------------------0----------0h2------3---3-------------------------------|
G|------2---2-------0---0------0-0------2-------2-----------------------------|
D|----4-------4---2-------2--2---2----0---------------------------------------|
A|--2-----------------------0-------------------------------------------------|
E|--------------0-------------------------------------------------------------|
You've got me waiting like a teenage girl


[Verse]

    Dsus2      D/F#      D/G      D     D/C#
e|--------0----------0---------0----------------------------------------------|
B|------3----3-----3---3-----3--------3-----3---------------------------------|
G|----2------2---2-----2---2--------2-----2-----------------------------------|
D|--0-----------------------------0-------------------------------------------|
A|--------------------------------------4-------------------------------------|
E|-------------2---------3----------------------------------------------------|
My eyes wide with starlight unfolding in my new dress the memories

    Bm7         Em         A7        Dsus2   D/C#
e|--------2-------------------------------------------------------------------|
B|--------------------0----------3p2------3-------3---------------------------|
G|------2---2-------0----------0-0------2-------2-----------------------------|
D|----4-------4---2----------2---2----0---------------------------------------|
A|--2----------------------0-----------------4--------------------------------|
E|--------------0-------------------------------------------------------------|
Love is more hesitant a second time


[Chorus]

   Bm7          Em          Bm7         Em
e|--------2-----------------------2------------------------------------------|
B|--------------------0-----------------------0------------------------------|
G|------2---2-------0---0-------2---2-------0--0-----------------------------|
D|----4-------4---2-------2---4-------4---2------2---------------------------|
A|--2-----------------------2------------------------------------------------|
E|--------------0-----------------------0------------------------------------|
Oooh Oooh Oooh

    Bm7     E7sus4  E7  A7        Dsus2
e|--------2---0-----0--------------------0-----------0------------------------|
B|--------3---0-----0---------3p2------3---3-------3---3----------------------|
G|------2-----2-----1-------0-0------2-------2---2-------2--------------------|
D|----4-------0-----0-----2---2----0-----------0------------------------------|
A|--2---------2-----2---0-----------------------------------------------------|
E|------------0-----0---------------------------------------------------------|
Hey I won't break your heart like you broke mine


[Verse]

    Dsus2      D/F#      D/G      D     D/C#
e|--------0----------0---------0----------------------------------------------|
B|------3----3-----3---3-----3--------3-----3---------------------------------|
G|----2------2---2-----2---2--------2-----2-----------------------------------|
D|--0-----------------------------0-------------------------------------------|
A|--------------------------------------4-------------------------------------|
E|-------------2---------3----------------------------------------------------|
This time around I won't cling to those paper crowns, I won't tear you down

    Bm7         Em          A7           
e|--------2-------------------------------------------------------------------|
B|--------------------0----------0h2------------------------------------------|
G|------2---2-------0---0------0-0--------------------------------------------|
D|----4-------4---2-------2--2---2--------------------------------------------|
A|--2-----------------------0-------------------------------------------------|
E|--------------0-------------------------------------------------------------|
This time, I'll listen like it's love's first secret


[Verse]

    Dsus2       D/C#        D/C         Bm7    
e|--------0-----------0-----------0-----------2-------------------------------|
B|------3---3-------3---0-------3---3-----------3-----------------------------|
G|----2-------2---2-------2---2-------2-----2-----2---------------------------|
D|--0-------------------------------------4-----------------------------------|
A|--------------4-----------3-----------2-------------------------------------|
E|----------------------------------------------------------------------------|
So come bring love here with all its mistakes speak to me softly, like lovers do

    Em          Asus4 E7  A7         D     D/C#
e|----------------------------------------------------------------------------|
B|--------0-------3---0---------0h2------3-----3------------------------------|
G|------0---0-----2---1-------0-0------2-----2--------------------------------|
D|----2-------2---2---0-----2---2----0----------------------------------------|
A|----------------0---2---0----------------4----------------------------------|
E|--0-----------------0-------------------------------------------------------|
Here are the fragments I saved for you


[Chorus]

   Bm7          Em          Bm7         Em
e|--------2-----------------------2------------------------------------------|
B|--------------------0-----------------------0------------------------------|
G|------2---2-------0---0-------2---2-------0--0-----------------------------|
D|----4-------4---2-------2---4-------4---2------2---------------------------|
A|--2-----------------------2------------------------------------------------|
E|--------------0-----------------------0------------------------------------|
Oooh Oooh Oooh

    Bm7      E7sus4 E7  A7        Dsus2  D/C#
e|--------2---0-----0---------------------------------------------------------|
B|--------3---0-----0---------2h3------3-----3--------------------------------|
G|------2-----2-----1-------0-0------2-----2----------------------------------|
D|----4-------0-----0-----2---2----0------------------------------------------|
A|--2---------2-----2---0----------------4------------------------------------|
E|------------0-----0---------------------------------------------------------|
Hey I won't break your heart like you broke mine




HEY I WONT BREAK YOUR HEART

[Verse]
Dsus2       D/F#        D/G       D     D/C#
Here in the twilight of one endless summer
Bm7           Em             A7      Dsus2   
You've got me waiting like A teenage girl
Dsus2             D/F#          D/G                     D           D/C#
My eyes wide with starlight but folded in my new dress, the memories
Bm7    Em               A7     Dsus2   D/C#
Love is more hesitant a second time

[Chorus]
Bm7  Em  Bm7 Em
Oooh ooh ooh ooh
Bm7          E7sus4     E7              A7         Dsus2
Hey, I won't break your heart, like you broke mine


[Verse}
Dsus2              D/F#                             D/G            D        D/C#
This time around I won't cling to those paper crowns, I won't tear you down
Bm7             Em               A7  
This time, I'll listen like it's love's first secret
  Dsus2       D/C#                            D/C                 Bm7 
So come bring love here with all its mistakes speak to me softly, like lovers do
Em    Asus4        E7          A7         D   D/C#
......Here are the fragments I saved for you

[Chorus]
Bm7  Em  Bm7 Em
Oooh ooh ooh ooh
Bm7          E7sus4     E7              A7         Dsus2
Hey, I won't break your heart, like you broke mine


[Bridge] 
Bm7                       E7sus4 E7
Oh, it seems it's easy to love you
A7                           D    D/C#
You go to my head, Just like wine
Bm7                          E7sus4 E7
All the bitterness, it has left me
A7sus4
So don't leave me standing here
A7sus4
I won't be satisfied
A7sus4                        D     
Unless you come here and stay by my side


[Outro]

D       D/F#
Oh, oh, oh
        D/G          D   D/C#
I won't break your heart

        Bm7
Oh, oh, oh
        E7sus4 E7
Oh, oh, oh
        A7sus4 A7   D
I won't break your heart

              D/F#
Oh, it goes so fast
       D/G     D   D/C#
And it goes so fast
       Bm7     E7sus4 E7   
And it goes so fast
        A7sus4 A7   D
I won't break your heart
           D                   D/F#
All that I know is that I love you
               D/ G
All that I know is that I'm sure
D   D/C#           Bm7     E7sus4 E7
All that I know is that I need you
        A7sus4 A7  D        
I won't break your heart

Bm7 Em
Oooh
Bm7 Em
Oooh
Bm7          
I won't break 
Em          
I won't break your heart
Bm7          
I won't break 
Em                 Bm7
I won't break your heart



************************************
| h  Hammer-on
| p  Pull-off
************************************   

Corinne Bailey Rae - Hey I Wont Break Your Heart - ноты

(включить)
Другие композиции этого автора:
Другие материалы по этой песне:
  • Аккорды, текст

https://primanota.ru/corinne-bailey-rae/hey-i-wont-break-your-heart-chords.htm

Привет, гитарист!

Тебе подарок от сайта PrimaNota.ru

Забрать подарок
ВАМ ПОДАРКИ ОТ ПРОЕКТА
"ГИТАРНАЯ РЕВОЛЮЦИЯ"