» 
 » 
Stop Where You Are



Corinne Bailey Rae - Stop Where You Are - табы

Чайковский в рок-аранжировке! Очень необычно, послушай!
-------------------------------------------------------------------------------
                             Stop where you are - Corinne Bailey Rae
-------------------------------------------------------------------------------
Tabbed by:majorseventh
E-mail:cwarner3000@gmail.com


The song is played with two guitars and keyboard. The tab for the guitar parts is below.
Corinne plays Guitar 2.

The implied chords to play this song using one guitar are below the tab.



Standard tuning EADGBe

 Guitar 1
e|---------------------------------------------------------------------------|
B|---------------------------------------------------------------------------|
G|---------------------------------------------------------------------------|
D|----0h2---3--2--0---------------------0h2----3---2--0------2---------------|
A|--3-----3---------3-3---------------3-----3-------------3------------------|
E|---------------------------------------------------------------------------|

 Guitar 2
e|---------------------------------------------------------------------------|
B|---------------------------------------------------------------------------|
G|--------------------0-0-0-0-0-0-0-0-0-0---0-0-0-0-0--0-0-0-0--0------------|
D|---------------------------------------------------------------------------|
A|-------------------3---3---3-3---3---3---3---3---3--3---3---3--------------|
E|---------------------------------------------------------------------------|



 Guitar 1
e|---------------------------------------------------------------------------|
B|---------------------------------------------------------------------------|
G|---------------------------------------------------------------------------|
D|-------------------0h2----3---2--0-----------------------------------------|
A|-----------------3-----3-------------3----3-----------------------3/5-3----|
E|---------------------------------------------------------------------------|

 Guitar 2
e|---------------------------------------------------------------------------|
B|---------------------------------------------------------------------------|
G|---0-0-0-0-0-0-0-0-0--0----0-0--0-0-0-0-0-0-0-0--0-0-0-0-0-0-0-0-0-0-------|
D|---------------------------------------------------------------------------|
A|--0---0---0-0---0---0------------------------------------------------------|
E|--------------------------3---3----3-3---3---3--1---1---1-1---1---1--------|

 Guitar 1
e|---------------------------------------------------------------------------|
B|---------------------------------------------------------------------------|
G|---------------------------------------------------------------------------|
D|-------------------0h2----3---2--0-----------------------------------------|
A|-----------------3-----3------------3--3-----------------------------------|
E|---------------------------------------------------------------------------|

 Guitar 2
e|---------------------------------------------------------------------------|
B|---------------------------------------------------------------------------|
G|---0-0-0-0-0-0-0-0-0-0--0-0-0-0-0-0-0-0-0-0--------then repeat-------------|
D|---------------------------------------------------------------------------|
A|--3---3---3-3---3---3--3---3---3-3---3---3---------------------------------|
E|---------------------------------------------------------------------------|




[Verse]
C             F          G         C
Tender is the light that shines on you
C             F       G    Am                
Gentle is the morning made anew
Am           F           G    F
Delicate the grace we've come into
G  C
My love


[Verse]
C              F         G    C
Wonder why you wish your life away
C               F       G       Am
Waiting for the perfect boat to take
Am              F       G       F
Waiting for the perfect wind to sail 
G  C
Away


[Prechorus]
Bb                F
Life's shining around
             Am
Don't miss a day
                         G
If your caught up in the chase
                         Bb
You hold your happiness away from you


[Chorus]
C
Stop where you are
Am
Under fading stars
G
This is the world we made and
                              F
There is no better place, its true
                       
Light a fire where you are


[Verse]
C            F       G      C
Underneath a blanket of the cold
C            F         G          Am
Lying in the dark your seeds will grow
Am            F      G      F
Miracles just like a winter rose
G    C
Will be


[Verse]
C               F          G     C
Give up all the things you can't control
C                  F          G        Am
Still yourself and watch them come and go
Am           F          G           F
Wherever you are you'll find you're home
G  C
At last


[Prechorus]
Bb                  F
Everything Glitters around you
             Am
Don't miss a day
                G
The moon on the lake
                             Bb
The smell in the air when it rains
Bb                 F
The people you can share with
        
The feeling you get when you're
G      G7
Almost there
 

[Chorus]
C
Stop where you are
Am
Under fading stars
G
This is the world we made and
                              F
There is no better place, its true
                       
Light a fire where you are

Am
You can't stop the wild wind roaring
G
But you can stop my poor heart from 
    F
Calling out
                       C
Light a fire where you are


[Chorus]
C
Stop where you are
Am
Under fading stars
G
This is the world we made and
                              F
There is no better place, its true
                       
Light a fire where you are
   

Corinne Bailey Rae - Stop Where You Are - ноты

(включить)
Другие композиции этого автора:
Другие материалы по этой песне:
  • Аккорды, текст

https://primanota.ru/corinne-bailey-rae/stop-where-you-are-chords.htm

Привет, гитарист!

Тебе подарок от сайта PrimaNota.ru

Забрать подарок
ВАМ ПОДАРКИ ОТ ПРОЕКТА
"ГИТАРНАЯ РЕВОЛЮЦИЯ"