PrimaNota.ru - самый крупный в мире бесплатный архив песенных текстов, аккордов, табулатур и нот


Zombies - I Dont Want To Worry - бас-таба, видео

Регистрация Запомнить меня
Войти через:  Facebook Google Twitter Vk Yandex Mail.ru

Zombies - I Dont Want To Worry - бас-таба, видео

Печатать
Просмотров: 71
Уроки эстрадного вокала в Санкт-Петербурге
Tabbed by: 6METAL6BASSIST6
E-mail: petergriffinav@gmail.com

Tuning: EADG

G|----------------------------------------------------------------|
D|----------------------------------------------------------------| x2
A|0-----------0---0---------------0-----------0---0---------------|
E|----------------------------------------------------------------|

0:07

G|----------------------------------------------------------------|
D|----------------------------------------------------------------|
A|0-----------0---0---------------0-----------0---0---------------|
E|----------------------------------------------------------------|

G|----------------------------------------------------------------|
D|----------------------------------------------------------------|
A|--------------------------------0-----------0---0---------------|
E|3-----------3---3-----------------------------------------------|

G|----------------------------------------------------------------|
D|----------------------------------------------------------------|
A|0-----------0---0---------------0-----------0---0---------------|
E|----------------------------------------------------------------|

G|----------------------------------------------------------------|
D|----------------------------------------------------------------|
A|--------------------------------5-----------5---5---------------|
E|3-----------3---3-----------------------------------------------|

0:20

G|----------------------------------------------------------------|
D|--------------------------------4-----------4---4---------------|
A|5-----------5---5-----------------------------------------------|
E|----------------------------------------------------------------|

G|----------------------------------------------------------------|
D|5-----------5---5-----------------------------------------------|
A|--------------------------------7-----------7---7---------------|
E|----------------------------------------------------------------|

0:25

G|----------------------------------------------------------------|.
D|----------------------------------------------------------------|.
A|0-------0-------0-------0-------0-------0-------0-------0-------|.
E|----------------------------------------------------------------|.
                                                                   .
G|----------------------------------------------------------------|.
D|----------------------------------------------------------------|.
A|2-------2-------2-------2-------2-------2-------2-------2-------|.
E|----------------------------------------------------------------|.
                                                                   . x2
G|----------------------------------------------------------------|.
D|----------------------------------------------------------------|.
A|----------------------------------------------------------------|.
E|3-------3-------3-------3-------0-------0-------0-------0-------|.
                                                                   .
G|----------------------------------------------------------------|.
D|----------------------------------------------------------------|.
A|0-------0-------0-------0-------0-------0-------0-------0-------|.
E|----------------------------------------------------------------|.

0:50

G|----------------------------------------------------------------|
D|----------------------------------------------------------------|
A|0-----------0---0---------------0-----------0---0---------------|
E|----------------------------------------------------------------|

G|----------------------------------------------------------------|
D|----------------------------------------------------------------|
A|--------------------------------0-----------0---0---------------|
E|3-----------3---3-----------------------------------------------|

G|----------------------------------------------------------------|
D|----------------------------------------------------------------|
A|0-----------0---0---------------0-----------0---0---------------|
E|----------------------------------------------------------------|

G|----------------------------------------------------------------|
D|----------------------------------------------------------------|
A|--------------------------------5-----------5---5---------------|
E|3-----------3---3-----------------------------------------------|

1:03

G|----------------------------------------------------------------|
D|--------------------------------4-----------4---4---------------|
A|5-----------5---5-----------------------------------------------|
E|----------------------------------------------------------------|

G|----------------------------------------------------------------|
D|5-----------5---5-----------------------------------------------|
A|--------------------------------7-----------7---7---------------|
E|----------------------------------------------------------------|

1:10

G|----------------------------------------------------------------|
D|----------------------------------------------------------------|
A|0-------0-------0-------0-------0-------0-------0-------0-------|
E|----------------------------------------------------------------|

G|----------------------------------------------------------------|
D|----------------------------------------------------------------|
A|2-------2-------2-------2-------2-------2-------2-------2-------|
E|----------------------------------------------------------------|

G|----------------------------------------------------------------|
D|----------------------------------------------------------------|
A|----------------------------------------------------------------|
E|3-------3-------3-------3-------0-------0-------0-------0-------|

G|----------------------------------------------------------------|
D|----------------------------------------------------------------| x2
A|0-------0-------0-------0-------0-------0-------0-------0-------|
E|----------------------------------------------------------------|

G|----------------------------------------------------------------|
D|----------------------------------------------------------------|
A|2-------2-------2-------2-------2-------2-------2-------2-------|
E|----------------------------------------------------------------|

G|----------------------------------------------------------------|
D|----------------------------------------------------------------|
A|----------------------------------------------------------------|
E|3-------3-------3-------3-------0-------0-------0-------0-------|

G|----------------------------------------------------------------|
D|----------------------------------------------------------------|
A|0-------0-------0-------0-------0---------------0-----2-----4---|
E|----------------------------------------------------------------|

1:33

G|----------------------------------------------------------------|
D|----------------------------------------------------------------|
A|5-----------5-------------------7-----------7-------------------|
E|----------------------------------------------------------------|

G|----------------------------------------------------------------|
D|----------------------------------------------------------------|
A|0-----------0-------------------0-------------0-------2-----4---|
E|----------------------------------------------------------------|

G|----------------------------------------------------------------|
D|--------------------------------4-----------4---4---------------|
A|5-----------5---5-----------------------------------------------|
E|----------------------------------------------------------------|

G|----------------------------------------------------------------|
D|5-----------5---5-----------------------------------------------|
A|--------------------------------7-----------7---7---------------|
E|----------------------------------------------------------------|

1:48

G|----------------------------------------------------------------|.
D|----------------------------------------------------------------|.
A|0-------0-------0-------0-------0-------0-------0-------0-------|.
E|----------------------------------------------------------------|.
                                                                   .
G|----------------------------------------------------------------|.
D|----------------------------------------------------------------|.
A|2-------2-------2-------2-------2-------2-------2-------2-------|.
E|----------------------------------------------------------------|.
                                                                   . x2
G|----------------------------------------------------------------|.
D|----------------------------------------------------------------|.
A|----------------------------------------------------------------|.
E|3-------3-------3-------3-------0-------0-------0-------0-------|.
                                                                   .
G|----------------------------------------------------------------|.
D|----------------------------------------------------------------|.
A|0-------0-------0-------0-------0-------0-------0-------0-------|.
E|----------------------------------------------------------------|.

G|----------------------------------------------------------------|
D|----------------------------------------------------------------|
A|----------------------------------------------------------------|
E|3-------3-------3-------3-------0-------0-------0-------0-------|

G|----------------------------------------------------------------|
D|----------------------------------------------------------------|
A|0-------0-------0-------0-------0-------0-------0-------0-------|
E|----------------------------------------------------------------|

G|----------------------------------------------------------------|
D|----------------------------------------------------------------|
A|----------------------------------------------------------------|
E|3-------3-------3-------3-------0-------0-------0-------0-------|

G|--------------------------------|
D|--------------------------------|
A|0-------------------------------|
E|--------------------------------|
Добавлено: 15.02.2016
Другие материалы по этой песне:
  • Аккорды и текст

Страница создана 15.02.2016
http://primanota.ru/zombies/i-dont-want-to-worry-chords.htm
Привет, Гость.
Предлагаем пройти революционный курс по гитаре.
Подарок от PrimaNota.Ru, забирай!