PrimaNota.ru - самый крупный в мире бесплатный архив песенных текстов, аккордов, табулатур и нот


Zombies - Ill Keep Trying - бас-таба, видео

Регистрация Запомнить меня
Войти через:  Facebook Google Twitter Vk Yandex Mail.ru

Zombies - Ill Keep Trying - бас-таба, видео

Печатать
Просмотров: 72
Tabbed by: 6METAL6BASSIST6
E-mail: petergriffinav@gmail.com

Tuning: EADG

G|----------------------------------------------------------------|
D|3-----------3-----------3-------3-----------3-----------3-------| x3
A|----------------------------------------------------------------|
E|----------------------------------------------------------------|

0:10

G|0-----------0-----------0-------2-------------------------------|
D|--------------------------------------------0-----------0-------|
A|----------------------------------------------------------------|
E|----------------------------------------------------------------|

G|----------------------------------------------------------------|
D|3-----------3-----------3-------1-------------------------------|
A|--------------------------------------------1-----------1-------|
E|----------------------------------------------------------------|

G|----------------------------------------------------------------|
D|3-----------3-----------3-------3-----------3-----------3-------|
A|----------------------------------------------------------------|
E|----------------------------------------------------------------|

G|0-----------0-----------0-------2-------------------------------|
D|--------------------------------------------0-----------0-------|
A|----------------------------------------------------------------|
E|----------------------------------------------------------------|

G|----------------------------------------------------------------|
D|3-----------3-----------3-------1-------------------------------|
A|--------------------------------------------1-----------1-------|
E|----------------------------------------------------------------|

G|----------------------------------------------------------------|
D|3-----------3-----------3-------3-----------3-----------2-------|
A|----------------------------------------------------------------|
E|----------------------------------------------------------------|

0:30

G|----------------------------------------------------------------|
D|0-----------0-----------0-------------------------------2-------|
A|----------------------------3---2-----------2-------------------|
E|----------------------------------------------------------------|

G|----------------------------------------------------------------|
D|0-----------0-----------0-------------------------------3---2---|
A|----------------------------3---2-----------2-------------------|
E|----------------------------------------------------------------|

G|----------------------------------------------------------------|
D|0-----------0-----------0---------------------------------------|
A|----------------------------3---2-----------2-----------2-------|
E|----------------------------------------------------------------|

G|----------------------------------------------------------------|
D|--------------------------------5---5---5---5---5---5---5---5---|
A|1---------------1---1---1---1-----------------------------------|
E|----------------------------------------------------------------|

0:43

G|----------------------------------------------------------------|
D|3-----------3-----------3---------------------------------------|
A|--------------------------------1-----------1-----------1-------|
E|----------------------------------------------------------------|

G|--------------------------------------------------------2-------|
D|3-----------3-----------3---------------------------------------|
A|--------------------------------1-----------1-------------------|
E|----------------------------------------------------------------|

G|----------------------------------------------------------------|
D|3-----------3-----------3---------------------------------------|
A|--------------------------------1-----------1-----------1-------|
E|----------------------------------------------------------------|

G|----------------------------------------------------------------|
D|3-----------3-----------3-------3-----------3-----------3-------|
A|----------------------------------------------------------------|
E|----------------------------------------------------------------|

0:55

G|0-----------0-----------0-------2-------------------------------|
D|--------------------------------------------0-----------0-------|
A|----------------------------------------------------------------|
E|----------------------------------------------------------------|

G|----------------------------------------------------------------|
D|3-----------3-----------3-------1-------------------------------|
A|--------------------------------------------1-----------1-------|
E|----------------------------------------------------------------|

G|----------------------------------------------------------------|
D|3-----------3-----------3-------3-----------3-----------3-------|
A|----------------------------------------------------------------|
E|----------------------------------------------------------------|

G|0-----------0-----------0-------2-------------------------------|
D|--------------------------------------------0-----------0-------|
A|----------------------------------------------------------------|
E|----------------------------------------------------------------|

G|----------------------------------------------------------------|
D|3-----------3-----------3-------1-------------------------------|
A|--------------------------------------------1-----------1-------|
E|----------------------------------------------------------------|

G|----------------------------------------------------------------|
D|3-----------3-----------3-------3-----------3-----------2-------|
A|----------------------------------------------------------------|
E|----------------------------------------------------------------|

1:15

G|----------------------------------------------------------------|
D|0-----------0-----------0-------------------------------2-------|
A|----------------------------3---2-----------2-------------------|
E|----------------------------------------------------------------|

G|----------------------------------------------------------------|
D|0-----------0-----------0-------------------------------3---2---| x2
A|----------------------------3---2-----------2-------------------|
E|----------------------------------------------------------------|

G|----------------------------------------------------------------|
D|0-----------0-----------0---------------------------------------|
A|----------------------------3---2-----------2-----------2-------|
E|----------------------------------------------------------------|

G|----------------------------------------------------------------|
D|--------------------------------5---5---5---5---5---5---5---5---|
A|1---------------1---1---1---1-----------------------------------|
E|----------------------------------------------------------------|

1:28

G|--------------------------------------------------------2-------|
D|3-----------3-----------3---------------------------------------| x3
A|--------------------------------1-----------1-------------------|
E|----------------------------------------------------------------|

G|----------------------------------------------------------------|
D|3-----------3-----------3-------3-----------3-----------3-------|
A|----------------------------------------------------------------|
E|----------------------------------------------------------------|

1:40

G|0-----------0-----------0-------2-------------------------------|
D|--------------------------------------------0-----------0-------|
A|----------------------------------------------------------------|
E|----------------------------------------------------------------|

G|----------------------------------------------------------------|
D|3-----------3-----------3-------1-------------------------------|
A|--------------------------------------------1-----------1-------|
E|----------------------------------------------------------------|

G|----------------------------------------------------------------|
D|3-----------3-----------3-------3-----------3-----------2-------|
A|----------------------------------------------------------------|
E|----------------------------------------------------------------|

1:50

G|----------------------------------------------------------------|
D|0-----------0---0-------0-------------------------------2-------|
A|----------------------------3---2-----------2-------------------|
E|----------------------------------------------------------------|

G|----------------------------------------------------------------|
D|0-----------0-----------0-------------------------------3---2---|
A|----------------------------3---2-----------2-------------------|
E|----------------------------------------------------------------|

G|----------------------------------------------------------------|
D|0-----------0-----------0---------------------------------------|
A|----------------------------3---2-----------2-----------2-------|
E|----------------------------------------------------------------|

G|----------------------------------------------------------------|
D|--------------------------------5---5---5---5---5---5---5---5---|
A|1---------------1---1---1---1-----------------------------------|
E|----------------------------------------------------------------|

2:05

G|--------------------------------------------------------2-------|
D|3-----------3-----------3---------------------------------------| x2
A|--------------------------------1-----------1-------------------|
E|----------------------------------------------------------------|

G|----------------------------------------------------------------|
D|3-----------3-----------3---------------------------------------|
A|--------------------------------1-----------1-----------1-------|
E|----------------------------------------------------------------|

G|----------------------------------------------------------------|
D|3-----------3-----------3-------3-----------3-----------3-------|
A|----------------------------------------------------------------|
E|----------------------------------------------------------------|

G|--------------------------------3-----------3-----------3-------|
D|3-----------3-----------3---------------------------------------|
A|----------------------------------------------------------------|
E|----------------------------------------------------------------|

G|--------------------------------|
D|3-------------------------------|
A|--------------------------------|
E|--------------------------------|
Добавлено: 15.02.2016
Другие материалы по этой песне:
  • Аккорды и текст

Страница создана 15.02.2016
http://primanota.ru/zombies/ill-keep-trying-chords.htm
Привет, Гость.
Предлагаем пройти революционный курс по гитаре.
Подарок от PrimaNota.Ru, забирай!