PrimaNota.ru - самый крупный в мире бесплатный архив песенных текстов, аккордов, табулатур и нот


Zombies - The Look Of Love - бас-таба, видео

Регистрация Запомнить меня
Войти через:  Facebook Google Twitter Vk Yandex Mail.ru

Zombies - The Look Of Love - бас-таба, видео

Печатать
Просмотров: 87
Tabbed by: 6METAL6BASSIST6
E-mail: petergriffinav@gmail.com

Tuning: EADG

0:09

G|----------------------------------------------------------------|
D|5-----------5---5---5-----------5-----------5---5---5-----------| x2
A|----------------------------5-------------------------------5---|
E|----------------------------------------------------------------|

0:17

G|----------------------------------------------------------------|
D|5-----------5---5---5-----------5-----------5---5---5-------5---|
A|----------------------------5-----------------------------------|
E|----------------------------------------------------------------|

G|----------------------------------------------------------------|
D|----------------------------7-----------------------------------|
A|5-----------5---5---5-----------5-----------5---5-----------5---|
E|----------------------------------------------------------------|

G|----------------------------------------------------------------|
D|----------------------------8-----------------------------------|
A|6-----------6---6---6-----------6-----------6---6---6-------6---|
E|----------------------------------------------------------------|

G|----------------------------------------------------------------|
D|----------------------------7-----------------------------------|
A|5-----------5---5---5-----------5-----------5---5---5-------5---|
E|----------------------------------------------------------------|

0:33

G|----------------------------------------------------------------|
D|5-----------5---5---5-----------5-----------5---5---5-------5---|
A|----------------------------5-----------------------------------|
E|----------------------------------------------------------------|

G|----------------------------------------------------------------|
D|----------------------------8-------------------------------8---|
A|6-----------6---6---6-----------6-----------6---6---6-----------|
E|----------------------------------------------------------------|

G|----------------------------------------------------------------|
D|----------------------------------------------------------------|
A|6-----------6---6-------6-------1-----------1---1---1-------1-/-|
E|----------------------------------------------------------------|

G|----------------------------------------------------------------|
D|----------------------------8-----------------------------------|
A|6-----------6---6---6-----------6-----------6---6---6-------6---|
E|----------------------------------------------------------------|

G|----------------------------------------------------------------|
D|--------------------------------5-----------5-------------------|
A|5-----------5---5---5-------5-------------------3-------3-------|
E|----------------------------------------------------------------|

0:54

G|----------------------------------------------------------------|
D|----------------------------------------------------------------|
A|1-----------1---1-------1---------------------------------------|
E|--------------------------------1-----------1---1-----------1---|

G|----------------------------------------------------------------|
D|----------------------------------------------------------------|
A|------------------------------------------------1-----------1---|
E|1-----------1---1-----------1---1-----------1-------------------|

G|--------------------------------------------------------------------------------|
D|--------------------------------------------------------------------------------|
A|1-------1-----------------------------------------------------------------------|
E|----------------1-----------1---1-------1-------1-------------------------------|

1:08

G|----------------------------------------------------------------|
D|5-----------5---5---5-----------5-----------5---5---5-------5---|
A|----------------------------5-----------------------------------|
E|----------------------------------------------------------------|

G|----------------------------------------------------------------|
D|----------------------------7-----------------------------------|
A|5-----------5---5---5-----------5-----------5---5---5-------5---|
E|----------------------------------------------------------------|

G|----------------------------------------------------------------|
D|----------------------------8-----------------------------------|
A|6-----------6---6---6-----------6-----------6---6---6-------6---|
E|----------------------------------------------------------------|

G|----------------------------------------------------------------|
D|----------------------------7-----------------------------------|
A|5-----------5---5---5-----------5-----------5---5---5-------5---|
E|----------------------------------------------------------------|

1:24

G|----------------------------------------------------------------|
D|5-----------5---5---5-----------5-----------5---5---5-------5---|
A|----------------------------5-----------------------------------|
E|----------------------------------------------------------------|

G|----------------------------------------------------------------|
D|----------------------------8-------------------------------8---|
A|6-----------6---6---6-----------6-----------6---6---6-----------|
E|----------------------------------------------------------------|

G|----------------------------------------------------------------|
D|----------------------------------------------------------------|
A|6-----------6---6-------6-------1-----------1---1---1-------1-/-|
E|----------------------------------------------------------------|

G|----------------------------------------------------------------|
D|----------------------------8-----------------------------------|
A|6-----------6---6---6-----------6-----------6---6---6-------6---|
E|----------------------------------------------------------------|

G|----------------------------------------------------------------|
D|--------------------------------5-----------5-------------------|
A|5-----------5---5---5-------5-------------------3-------3-------|
E|----------------------------------------------------------------|

1:45

G|----------------------------------------------------------------|
D|----------------------------------------------------------------|
A|1-----------1---1-------1---------------------------------------|
E|--------------------------------1-----------1---1-----------1---|

G|----------------------------------------------------------------|
D|----------------------------------------------------------------|
A|------------------------------------------------1-----------1---|
E|1-----------1---1-----------1---1-------1---1-------------------|

G|--------------------------------------------------------------------------------|
D|--------------------------------------------------------------------------------|
A|1-------1-----------------------------------------------------------------------|
E|----------------1-----------1---1-----------1---1-------------------------------|

1:59

G|----------------------------------------------------------------|
D|5-----------5---5---5-------5---5-----------5---5---------------|
A|----------------------------------------------------------------|
E|----------------------------------------------------------------|

G|5-----------5---5---5-----------5-----------5---5---5-----------|
D|----------------------------------------------------------------|
A|----------------------------------------------------------------|
E|----------------------------------------------------------------|

G|5-----------5---5-------5---------------------------------------|
D|--------------------------------3-----------3---3-------3-------|
A|----------------------------------------------------------------|
E|----------------------------------------------------------------|

G|----------------------------------------------------------------|
D|3---------------------------------------------------------------|
A|----------------------------------------------------------------|
E|----------------------------------------------------------------|

G|----------------------------------------------------------------|
D|----------------------------------------------------------------|
A|1-----------1---1-------1-------1-------------------------------|
E|----------------------------------------------------------------|
Добавлено: 15.02.2016
Вам также может быть интересно:
Другие материалы по этой песне:
  • Аккорды и текст

Страница создана 15.02.2016
http://primanota.ru/zombies/look-of-love-chords.htm
Привет, Гость.
Предлагаем пройти революционный курс по гитаре.
Подарок от PrimaNota.Ru, забирай!