PrimaNota.ru - самый крупный в мире бесплатный архив песенных текстов, аккордов, табулатур и нот


Zebrahead - Ricky Bobby - таба, видео

Регистрация Запомнить меня
Войти через:  Facebook Google Twitter Vk Yandex Mail.ru

Zebrahead - Ricky Bobby - таба, видео

Печатать
Просмотров: 146
-----------------------------------------------------------------------------
                             RICKY BOBBY - Zebrahead
-----------------------------------------------------------------------------
Tabbed by: Daniel Love (Vash_15)
Email: vash_i5@yahoo.com

Tuning: Standard (EADGBe)

Intro riff pt 1 (gtr 1 with heavy distortion)

e|--------------------------------------------------------------------------|
B|--------------------------------------------------------------------------|
G|-4-4-4-4-4-4-4-4\3-3-3-4-4-4-4-(x3)-4-4-4-4-4-4-4-4\3---------------------|
D|--------------------------------------------------------------------------|
A|--------------------------------------------------------------------------|
E|--------------------------------------------------------------------------|

Intro riff pt 2 (gtr 2 with heavy distortion)

e|-7-7-7-7-7-7-7-7\6-6-6-7-7-7-7-7-7-7-7-7-7-7-7\6--------------------------|
B|--------------------------------------------------------------------------|
G|--------------------------------------------------------------------------|
D|--------------------------------------------------------------------------|
A|--------------------------------------------------------------------------|
E|--------------------------------------------------------------------------|


Intro pt 2 (gtr 1)

e|---------------------------------------14---------------------15----------|
B|-12-11h12p11h12-15-(11)-12-11h12p11h12----(11)-12-11h12p11h12----(11)-----|
G|--------------------------------------------------------------------------|
D|--------------------------------------------------------------------------|
A|--------------------------------------------------------------------------|
E|--------------------------------------------------------------------------|

e|-14-14-12-12--------------------------------------------------------------|
B|-------------15-15-14-12--------------------------------------------------|
G|--------------------------------------------------------------------------|
D|--------------------------------------------------------------------------|
A|--------------------------------------------------------------------------|
E|--------------------------------------------------------------------------|


intro pt 2 (gtr 2)

e|--------------------------------------------------------------------------|
B|--------------------------------------------------------------------------|
G|-4~-11~-7~-4~-11~-7~-4~-11~-7~-99999999-----------------------------------|
D|-4~-11~-7~-4~-11~-7~-4~-11~-7~-99999999-----------------------------------|
A|-2~--9~-5~-2~--9~-5~-2~--9~-5~-77777777-----------------------------------|
E|--------------------------------------------------------------------------|

verse (gtr 1)


e|--------------------------------------------------------------------------|
B|--------------------------------------------------------------------------|
G|-4------------------------------------------------------------------------|
D|-4------------------------------------------------------------------------|
A|-2------------------------------------------------------------------------|
E|--------------------------------------------------------------------------|

e|--------------------------------------------------------------------------|
B|--------------------------------------------------------------------------|
G|-4~-11~-7~-4~-11~-7~------------------------------------------------------|
D|-4~-11~-7~-4~-11~-7~------------------------------------------------------|
A|-2~--9~-5~-2~--9~-5~------------------------------------------------------|
E|--------------------------------------------------------------------------|
  "Life is just a drag when the whole world's falling apart"

verse (gtr 2) play staccato over B chord half way through the verse

e|-------12-14-17-19--------------------------------------------------------|
B|-12-15--------------------------------------------------------------------|
G|--------------------------------------------------------------------------|
D|--------------------------------------------------------------------------|
A|--------------------------------------------------------------------------|
D|--------------------------------------------------------------------------|


pre chorus (gtr 1)

e|--------------------------------------------------------------------------|
B|--------------------------------------------------------------------------|
G|-7/9-9--7/9-9---7/9-9--7/9-9----------------------------------------------|
D|-7/9-9--7/9-9---7/9-9--7/9-9----------------------------------------------|
A|-5/7-7--5/7-7---5/7-7--5/7-7----------------------------------------------|
E|--------------------------------------------------------------------------|


pre chorus (gtr 2)

e|-xxxxxxxxxxxxxxxxxxxxxxxxxxxxxxxx-----------------------------------------|
B|-xxxxxxxxxxxxxxxxxxxxxxxxxxxxxxxx-----------------------------------------|
G|-xxxxxxxxxxxxxxxxxxxxxxxxxxxxxxxx-----------------------------------------|
D|-xxxxxxxxxxxxxxxxxxxxxxxxxxxxxxxx-----------------------------------------|
A|-xxxxxxxxxxxxxxxxxxxxxxxxxxxxxxxx-----------------------------------------|
E|-xxxxxxxxxxxxxxxxxxxxxxxxxxxxxxxx-----------------------------------------|


chorus


e|--------------------------------------------------------------------------|
B|--------------------------------------------------------------------------|
G|----------99999999----------1111111111111111------------------------------|
D|-99999999-99999999-77777777-1111111111111111------------------------------|
A|-99999999-77777777-77777777--9-9-9-9-9-9-9-9--(x2)------------------------|
E|-77777777----------55555555-----------------------------------------------|


Pre solo 
e|--------------------------------------------------------------------------|
B|--------------------------------------------------------------------------|
G|-4-4-4-4-4-4-4444---------------------------------------------------------|
D|-4-4-4-4-4-4-4444-(x2)----------------------------------------------------|
A|-2-2-2-2-2-2-2222---------------------------------------------------------|
E|--------------------------------------------------------------------------|

(can't figure out the solo, but gtr 2 just plays the chorus over it)


************************************

| /   slide up
| \   slide down
| h   hammer-on
| p   pull-off
| ~   vibrato
| +   harmonic
| x   Mute note
| b   Bend
| pb  Pre-bend
| br  Bend release
| pbr Pre-bend release
| brb Bend release bend

************************************
Добавлено: 24.07.2012
Другие материалы по этой песне:

Страница создана 19.03.2012
http://primanota.ru/zebrahead/ricky-bobby-chords.htm
Привет, Гость.
Предлагаем пройти революционный курс по гитаре.
Подарок от PrimaNota.Ru, забирай!