PrimaNota.ru - самый крупный в мире бесплатный архив песенных текстов, аккордов, табулатур и нот


Yung Lean - Oreo Milkshake - таба, видео

Регистрация Запомнить меня
Войти через:  Facebook Google Twitter Vk Yandex Mail.ru

Yung Lean - Oreo Milkshake - таба, видео

Печатать
Просмотров: 286
This is played on a synth with lots of delay on it, so it might not sound exactly like the song,
but the notes are correct.

e|------------------------------------------------------------------------|
B|---7-10----7-10----7-10----7-10----7-10----7-10----7-10----7-10----7-10-|
G|-7-------7-------7-------7-------9-------9-------9-------9-------9------|
D|------------------------------------------------------------------------| x3
A|------------------------------------------------------------------------|
E|------------------------------------------------------------------------|

e|---------------------------------------------------------|
B|-----9------9------9------10------7------7------7------7-|
G|---6------6------6------6-----6-7----6-7----6-7----6-7---|
D|-9------9------9------9----------------------------------|
A|---------------------------------------------------------|
E|---------------------------------------------------------|

play this x3 ^^^

e|---5-7-9-7-5---5-|-7-9-7-5-7-9-7-5-|---5-7-9-7-5---5-7-9-10-9-7-5---5---5-7-9-7-5---5---5-7-9-7---5-|
B|-7-----------7---|-----------------|-7-----------7----------------7---7-----------7---7---------9---|
G|-----------------|-----------------|----------------------------------------------------------------|
D|-----------------|-----------------|----------------------------------------------------------------| x2
A|-----------------|-----------------|----------------------------------------------------------------|
E|--- x3 ----------|-----------------|----------------------------------------------------------------|

Play first part behind this ^^^

e|------------------------------------------------------------------------|
B|---7-10----7-10----7-10----7-10----7-10----7-10----7-10----7-10----7-10-|
G|-7-------7-------7-------7-------9-------9-------9-------9-------9------|
D|------------------------------------------------------------------------| x3
A|------------------------------------------------------------------------|
E|------------------------------------------------------------------------|

e|---------------------------------------------------------|
B|-----9------9------9------10------7------7------7------7-|
G|---6------6------6------6-----6-7----6-7----6-7----6-7---|
D|-9------9------9------9----------------------------------|
A|---------------------------------------------------------|
E|---------------------------------------------------------|

play this again x2 ^^^

e|---5-7-9-7-5---5-|-7-9-7-5-7-9-7-5-|---5-7-9-7-5---5-7-9-10-9-7-5---5---5-7-9-7-5---5---5-7-9-7---5-|
B|-7-----------7---|-----------------|-7-----------7----------------7---7-----------7---7---------9---|
G|-----------------|-----------------|----------------------------------------------------------------|
D|-----------------|-----------------|----------------------------------------------------------------| x2
A|-----------------|-----------------|----------------------------------------------------------------|
E|--- x3 ----------|-----------------|----------------------------------------------------------------|


Play first part behind this ^^^

e|------------------------------------------------------------------------|
B|---7-10----7-10----7-10----7-10----7-10----7-10----7-10----7-10----7-10-|
G|-7-------7-------7-------7-------9-------9-------9-------9-------9------|
D|------------------------------------------------------------------------| x3
A|------------------------------------------------------------------------|
E|------------------------------------------------------------------------|

e|-----------------------------------------------------------|
B|-----9------9------9------10------7------7------7------7---|
G|---6------6------6------6-----6-7----6-7----6-7----6-7---6-|
D|-9------9------9------9------------------------------------|
A|-----------------------------------------------------------|
E|-----------------------------------------------------------|

play once ^^^
Добавлено: 27.12.2015
Другие материалы по этой песне:
  • Аккорды и текст

Страница создана 26.12.2015
http://primanota.ru/yung-lean/oreo-milkshake-chords.htm
Привет, Гость.
Предлагаем пройти революционный курс по гитаре.
Подарок от PrimaNota.Ru, забирай!