PrimaNota.ru - самый крупный в мире бесплатный архив песенных текстов, аккордов, табулатур и нот


Yung Lean - Hurt - таба, видео

Регистрация Запомнить меня
Войти через:  Facebook Google Twitter Vk Yandex Mail.ru

Yung Lean - Hurt - таба, видео

Печатать
Просмотров: 1074
Уроки эстрадного вокала в Санкт-Петербурге
Listen to the rhythm carefully on each bit.

e|------------------------------|
B|------------------------------|
G|-6--6--6--6--6--3--3--3--1--1-|
D|------------------------------| This repeats throughout the whole song pretty much.
A|------------------------------|
E|------------------------------|

e|-----14-13-11-------11----------------------------------------------|
B|--11----------11-9------11----9--7--9--11---------------------9--11-|
G|-------------------------------------------10-------------11--------|
D|-----------------------------------------------11-8--8-11-----------| x4
A|--------------------------------------------------------------------|
E|--------------------------------------------------------------------|

This comes in on the third time intro is played ^^^

e|----9-8---------9-8--------9-8---------------------14------14-----16--18--14-11--14--16--18--16--18--21--18-|
B|-11-----9-7--11------7--11-----9-7--9------------------16------16-------------------------------------------|
G|--------------------------------------8--10--11-13----------------------------------------------------------|
D|------------------------------------------------------------------------------------------------------------|
A|------------------------------------------------------------------------------------------------------------|
E|------------------------------------------------------------------------------------------------------------|

e|-----14-13-11-------11----------------------------------------------|
B|--11----------11-9------11----9--7--9--11---------------------9--11-|
G|-------------------------------------------10-------------11--------|
D|-----------------------------------------------11-8--8-11-----------|
A|--------------------------------------------------------------------|
E|--------------------------------------------------------------------|

e|----9-8---------9-8--------9-8---------------------14------14-----16--18--14-11--14--16--18--16--18--21--18-|
B|-11-----9-7--11------7--11-----9-7--9------------------16------16-------------------------------------------|
G|--------------------------------------8--10--11-13----------------------------------------------------------|
D|------------------------------------------------------------------------------------------------------------|
A|------------------------------------------------------------------------------------------------------------|
E|--------------------------------- x2 -----------------------------------------------------------------------|

e|-----14-13-11-------11----------------------------------------------|
B|--11----------11-9------11----9--7--9--11---------------------9--11-|
G|-------------------------------------------10-------------11--------|
D|-----------------------------------------------11-8--8-11-----------| x5
A|--------------------------------------------------------------------|
E|--------------------------------------------------------------------|

e|----9-8---------9-8--------9-8---------------------14------14-----16--18--14-11--14--16--18--16--18--21--18-|
B|-11-----9-7--11------7--11-----9-7--9------------------16------16-------------------------------------------|
G|--------------------------------------8--10--11-13----------------------------------------------------------|
D|------------------------------------------------------------------------------------------------------------|
A|------------------------------------------------------------------------------------------------------------|
E|--------------------------------- x2 -----------------------------------------------------------------------|


Добавлено: 27.12.2015
Другие материалы по этой песне:
  • Аккорды и текст

Страница создана 26.12.2015
http://primanota.ru/yung-lean/hurt-chords.htm
Привет, Гость.
Предлагаем пройти революционный курс по гитаре.
Подарок от PrimaNota.Ru, забирай!