PrimaNota.ru - самый крупный в мире бесплатный архив песенных текстов, аккордов, табулатур и нот


Wolf Alice - Bros Single Version - таба, видео

Регистрация Запомнить меня
Войти через:  Facebook Google Twitter Vk Yandex Mail.ru

Wolf Alice - Bros Single Version - таба, видео

Печатать
Просмотров: 129
Wolf Alice
Bros (Single Version)

Intro/Verse/Chorus 

e|--------------------------------------------------|
B|--------------------------------------------------|
G|--------------------------------------------------|
D|--------------------------------------------------|
A|2-2-2-4-4-4-6-6-7-7-7-7-7-7-7-7/14-14-14-12-12-12-|
E|0-0-0-0-0-0-0-0-0-0-0-0-0-0-0-0--0--0--0--0--0--0-| 

e|--------------------------------------------------|
B|--------------------------------------------------|
G|--------------------------------------------------|
D|--------------------------------------------------|
A|-14-14-11-11-11-11-11-11-11-11\4-4-4-4-4-4-4-4-6-6|
E|--0--0--0--0--0--0--0--0--0--0-5-5-5-5-5-5-5-5-5-5|


e|--------------------------------------------------|
B|--------------------------------------------------|
G|--------------------------------------------------|
D|--------------------------------------------------|
A|-6-7-7-7-7-7-2-2-2-2-2-2-4-2-4-2-2-2-2-2-2-2-2-2--|
E|-5-5-5-5-5-5-0-0-0-0-0-0-0-0-0-0-0-0-0-0-0-0-0-0--|


e|--------------------------------------------------|
B|--------------------------------------------------|
G|--------------------------------------------------|
D|--------------------------------------------------|
A|-6-6-6-6-6-6-6-5-4-4-4-4-4-4-4-4-2-2-2-2-2-2-2-2--|
E|-7-7-7-7-7-7-7-6-5-5-5-5-5-5-5-5-0-0-0-0-0-0-0-0--|
 
Lead Riff

e|---------------------|
B|-------12----10------|
G|---13----13-----13---|
D|-14--14----14--------|
A|---------------------|
E|---------------------|

Bridge

e|--------------------------------------------------|
B|--------------------------------------------------|
G|--------------------------------------------------|
D|---------------------------------6-6-6-6-6-6-6-6-6|
A|-2-2-2-2-2-2-2-2-2-2-2-2-2-2-2-2-4-4-4-4-4-4-4-4-4|
E|-0-0-0-0-0-0-0-0-0-0-0-0-0-0-0-0------------------|

e|--------------------------------------------------|
B|--------------------------------------------------|
G|--------------------------------------------------|
D|-6-6-6-6-6-6-6------------------------------------|
A|-4-4-4-4-4-4-4-2-2-2-2-2-2-2-2-2-2-2-2-2-2-2-2-2--|
E|---------------0-0-0-0-0-0-0-0-0-0-0-0-0-0-0-0-0--|

e|--------------------------------------------------|
B|--------------------------------------------------|
G|--------------------------------------------------|
D|-6-6-6-6-6-6-6-6-6-6-6-6-6-6-6-6-4-4-4-4-4-4-4-4-4|
A|-4-4-4-4-4-4-4-4-4-4-4-4-4-4-4-4-2-2-2-2-2-2-2-2-2|
E|--------------------------------------------------|

e|--------------------------------------------------|
B|--------------------------------------------------|
G|--------------------------------------------------|
D|-4-4-4-4-4-4-4-6-6-6-6-6-6-6-6-6-6-6-6-6-6-6-6-4-4|
A|-2-2-2-2-2-2-2-4-4-4-4-4-4-4-4-4-4-4-4-4-4-4-4-2-2|
E|--------------------------------------------------|

e|--------------------------------------------------|
B|--------------------------------------------------|
G|--------------------------------------------------|
D|-4-4-4-4-4-4-4-4-4-4-4-4-4-4----------------------|
A|-2-2-2-2-2-2-2-2-2-2-2-2-2-2-2-2-2-2-2-2-2-2-2----|
E|-----------------------------0-0-0-0-0-0-0-0-0----|


CHORDS


INTRO (when it kicks in)
Ex4 Ax2 Ex2 B A Ex2    


VERSE
E
Shake your hair

Have some fun
             
Forget our mothers and past lovers 

Forget everyone
     A
Oh, I'm so lucky
            E
You are my best friend 
        B               A                      E 
There's no one, there's no one that knows me like you do 


Ex4 Ax2 Ex2 B A Ex2


VERSE 2
E
Remember when we cut our hair
   
Both looked like boys 

But we didn't care 
          A                            E
Stuck it out together like we always do 
            B               A                   E    
Oh, there's no one, there's no one quite like you 


Ex4 Ax2 Ex2 B A Ex2


BRIDGE
E            C#m
Oh Jump that 43
          E
Are you wild like me
          C#m
Raised by wolves and other beasts
                   B
I tell you all the time
        C#m
I'm not mad
                    B
You tell me all the time 
        E
I got plans 

E            C#m
Oh Jump that 43
          E
Are you wild like me
          C#m
Raised by wolves and other beasts
                   B
I tell you all the time
        C#m
I'm not mad
                    B
You tell me all the time 
      E
I got plans 


OUTRO
E
Me and you , Me and you , Me and you 

We could do better, I'm quite sure
A
Me and you, Me and you , Me and you 
             E  
We could do better, I'm quite sure
B          A        E
Me me me, me me and you
B          A        E  
Me me me, me me and you
Добавлено: 11.09.2015
Другие материалы по этой песне:
  • Аккорды и текст

Страница создана 11.09.2015
http://primanota.ru/wolf-alice/bros-single-version-chords.htm
Привет, Гость.
Предлагаем пройти революционный курс по гитаре.
Подарок от PrimaNota.Ru, забирай!