PrimaNota.ru - самый крупный в мире бесплатный архив песенных текстов, аккордов, табулатур и нот


Wolf Alice - Your Loves Whore - таба, видео

Регистрация Запомнить меня
Войти через:  Facebook Google Twitter Vk Yandex Mail.ru

Wolf Alice - Your Loves Whore - таба, видео

Печатать
Просмотров: 143
-------------------------------------------------------------------------------
                             YOUR LOVE'S WHORE - Wolf Alice
-------------------------------------------------------------------------------
Tabbed by: @nicholaspaulpgh

Tuning: E A D G B e

Wolf Alice is incredible live. Please support them in any and all capacity @ wolfalice.co.uk
See this vid for timing and such: https://www.youtube.com/watch?v=vUw6XtiYWww

Chords used:

     A    G   F#/D           A5   B5    C#5    D5
e|---0----3-------------------------------------------|
B|---2----3----3--------------------------------------|
G|---2----0----2--------------------------------------|
D|---2----0----0-------------7-----9-----11----12-----|
A|---0----2----x-------------7-----9-----11----12-----|
E|--------3----2-------------5-----7------9----10-----|

Joff's lead riff over intro (00:12),gradually releasing the palm-mute. Play through 
until next riff
begins (1:06)

e|---------------------------------------------------------------------------|
B|---------------------------------------------------------------------------|
G|---------------------------------------------------------------------------|
D|-12-12--11-11--5-5--7/12-12-12--11-11--5-5-7-7-----------------------------|
A|--0--0---0-0---0-0-----0--0--0---0--0--0-0-0-0-----------------------------|
E|---------------------------------------------------------------------------|


Ellie's rhythm chords (overdriven) come in along with her vox at 00:43

Aaaaaaahhhhhhhhhhhhhaaaaaaaaa
     A    G   F#/D  A
e|---0----3---------0----|
B|---2----3----3----2----|
G|---2----0----2----2----|
D|---2----0----0----2----|
A|---0----2----x----0----|
E|--------3----2---------|


Joff's lead riff 2, mutes begin at 1:06, played over rhythm chords

    dudu
e|--xxxx-------------------------------------------------------------------------------------------------|
B|--xxxx-------------------------------------------------------------------------------------------------|
G|--xxxx------16~--16b18--14~----------16~--16b18--14~---------------------------------------------------|
D|--xxxx---------------------------------------------14----x2-------11--Hold-----------------------------|
A|--xxxx----------------------------------------------0--------------0--------------9/7v//////////-------|
E|--xxxx-------------------------------------------------------------------------------------------------|

Theo's bass part is something to this effect during the verses:
G|---------------------------------------------------------------------------|
D|---14-14-12-12-12-16-16-16-12-12-14-14-14-14--14-14-12-12-12-16-16-16-12-12|
A|-00-----------------------------------------00-----------------------------|
E|---------------------------------------------------------------------------|
  Don't you want to take time and get to love me
  We could build a perfect world
  I got tricks I really want to show you
  I could be your perfect girl, all right


Joff's riff 3 over pre-chorus, which basically follows Ellie's melody
e|---------------------------------------------------------------------|
B|-------(2)/5-------------------------------5~~~~~~~------------------|
G|-2-4-2------6~~~~~~~~6b7/2-2h4-2-2----2-4-2---------4b6-2~~~~~-------|   2x
D|---------------------------------------------------------------------|
A|---------------------------------------------------------------------|
E|---------------------------------------------------------------------|
  And when we grow older
  We'll still be friends
  We'll could still be lovers
  And we won't fear the end

Joff's riff 4 over verse 2 comes in with Ellie's second line, once again following her melody
e|---------------------------------------------------------------------------|
B|--*Repeat this part*-------------------------------------------------------|
G|--*for the last line*------------------------------------------------------|
D|-14~14~14~14~14~14~11~11b12~11-|-14~14~14~14~12~12~12~16~16b17/14~~--------|
A|--0--0--0--0--0--0--0--0--0--0-|--0--0--0--0--0--0--0--0--0--0--0----------|
E|---------------------------------------------------------------------------|
  Light won't flicker and the light won't fade, believe me
  And the world looks better in the place we made believe
  Hearts keep pumping and there's one thing that keeps me breathing
  Is the mentor I've seen and face I'll always see


Ellie's rhythm part palm-muted during pre-chorus 2:
     A5   B5    C#5    D5, played in down-strokes 4x each
e|----------------------------|
B|----------------------------|
G|----------------------------|
D|---7-----9-----11----12-----|
A|---7-----9-----11----12-----|
E|---5-----7------9----10-----|
  And when we grow older
  We'll still be friends
  We'll still be lovers
  And we won't fear the end

Ellie repeats the pre-chorus whilst Joff plays riff 4 over the 2nd pass of the pre-chorus.
Joff also utilizes reverse tremolo arm here (along with some delay), depressing the 
whammy bar prior to striking the G string at the 14th fret and slowly releasing it.
e|---------------------------------------------------------------------------|
B|---17--17--17--17--17--------17--------------------------------------------|
G|-14--14--14--14--14--14(trem)----------------------------------------------|     4x
D|---------------------------------------------------------------------------|
A|---------------------------------------------------------------------------|
E|---------------------------------------------------------------------------|
   And when we grow older (Oooh)
   We'll still be friends (Oooh)
   We'll could still be lovers (Oooh)
   And we won't fear the end (Oooh)


Full band bridge part
     A5   B5    C#5    D5
e|----------------------------|
B|----------------------------|
G|----------------------------|
D|---7-----9-----11----12-----|
A|---7-----9-----11----12-----|
E|---5-----7------9----10-----|
  I let your love take me
  Now I am your love's whore
  Keep me hardly breathing
  But, I can only love you more
  I can only love you more
  I can only love you more

*Band drops out here, whist Ellie continues...*

  I can only love you more!!!!!!!

OUTRO!!!

Joff plays the intro lead part (riff 1) over Ellie's "Aaaahhhhs," then of course goes on 
to play riff 2
e|---------------------------------------------------------------------------|
B|---------------------------------------------------------------------------|
G|---------------------------------------------------------------------------|
D|-12-12--11-11--5-5--7/12-12-12--11-11--5-5-7-7-----------------------------|
A|--0--0---0-0---0-0-----0--0--0---0--0--0-0-0-0-----------------------------|
E|---------------------------------------------------------------------------|

Aaaaaaahhhhhhhhhhhhhaaaaaaaaa
     A    G   F#/D  A
e|---0----3---------0----|
B|---2----3----3----2----|
G|---2----0----2----2----|
D|---2----0----0----2----|
A|---0----2----x----0----|
E|--------3----2---------|

Riff 2
    dudu
e|--xxxx-----------------------------------------------------------------|
B|--xxxx-----------------------------------------------------------------|
G|--xxxx------16~--16b18--14~----------16~--16b18--14~-------------------|
D|--xxxx---------------------------------------------14------------------|   2x
A|--xxxx----------------------------------------------0------------------|
E|--xxxx-----------------------------------------------------------------|

Joff then vamps out on an A major pentatonic type of riff whilst Ellie and Theo continue 
on with the
A, G, F#/D, A progression through to the end of the song
e|-------------------------------------------|
B|-------------------------------------------|
G|-------------------------------------------|
D|-11/-12/-14--11/-9/-7-9-9b11-7-7-----------|
A|--0---0---0---0--0--0-0-0---9--0-----------|
E|-------------------------------------------|

Ellie and Theo end on A

Joff ends on
e|-------|
B|-------|
G|-------|
D|---7---|
A|---0---|
E|-------|

Arrangement:
Intro
Verse
Pre-chorus
Verse
Pre-chorus
Pre-chorus
Bridge
Outro (same as intro)


Lyrics:

Don't you want to take time and get to love me
We could build a perfect world
I got tricks I really want to show you
I could be your perfect girl, all right

And when we grow older
We'll still be friends
We'll could still be lovers
And we won't fear the end

Light won't flicker and the light won't fade, believe me
And it all looks better in the place we made believe
Hearts keep pumping and there's one thing
That keeps me breathing
Is the mentor I've seen and face I'll always see

And when we grow older
We'll still be friends
We'll still be lovers
And we won't fear the end

And when we grow older (Oooh)
We'll still be friends (Oooh)
We'll could still be lovers (Oooh)
And we won't fear the end (Oooh)

I let your love take me
Now I am your love's whore
Keep me hardly breathing
But, I can only love you more
I can only love you more
I can only love you more
I can only love you more
I can only love you more

Ah, ah, ah, ah

************************************

| /   slide up
| \   slide down
| h   hammer-on
| p   pull-off
| ~   vibrato
| +   harmonic
| x   Mute note
| b   Bend


************************************
Добавлено: 11.09.2015
Другие материалы по этой песне:
  • Аккорды и текст

Страница создана 11.09.2015
http://primanota.ru/wolf-alice/your-loves-whore-chords.htm
Привет, Гость.
Предлагаем пройти революционный курс по гитаре.
Подарок от PrimaNota.Ru, забирай!