PrimaNota.ru - самый крупный в мире бесплатный архив песенных текстов, аккордов, табулатур и нот


Whitechapel - The Somatic Defilement - текст песни, таба, бас-таба, видео

Регистрация Запомнить меня
Войти через:  Facebook Google Twitter Vk Yandex Mail.ru

Whitechapel - The Somatic Defilement - текст песни, таба, бас-таба, видео

Печатать
Просмотров: 214
Уроки эстрадного вокала в Санкт-Петербурге
Whitechapel
The Somatic Defilement
The Somatic Defilement

Three Guitarists...I transcribed 1...attempted the left panel. Hard to tell though still.

They use 7 strings...but guess what...i don't own one...you do the math...so here it is 
a six string...

B---------------|
F#--------------|
D---------------|
A---------------|
E---0-1-0-4-3-1-|
A---0-1-0-4-3-1-|

(Tremelo Picked)

B--------------------------------|
F#-------------------------------|
D--------------------------------|
A--------------------------3-----|
E------5-1---5-4-------1-0-------|
A---0------0-----0-1-0-----------|

B---------------|
F#--------------|
D---------------|
A---------------|
E---0-1-0-4-3-1-|
A---0-1-0-4-3-1-|

B-----------------------------------|
F#----------------------------------|
D-----------------------------------|
A-----------------------------------|
E---0-1-0-4-3-1-0-1-1-1-0-2-4-3-0-1-|
A---0-1-0-4-3-1-0-1---1-0---4-3-0-1-|


2 Step
B-------------------------------------|
F#------------------------------------|
D-------------------------------------|
A-------------------------------------|
E------------------4---3--------------|
A---0-4-3-1-0-1-0---0---0-4-3-1-0-1---|


B-------------------------------------|
F#------------------------------------|
D-------------------------------------|
A-------------------------------------|
E----------------------------6---2-5--|
A---0-4-3-1-0-1-0-4-0-3-1-0---0-------|

Cool Riff

B----------------------------------------------------------|
F#---------------------------------------------------------|
D------------------------4-3-1---1-3-------------------3-4-|
A---------0h3h4p3--------------4-----------------3-4-1-----|
E--0-4-3-----------0------------------0-1-4-3-4------------|
A--0-4-3-----------0-000--------------0-1-4----------------|


B---------------------|
F#--------------------|
D---------------3-4---|
A---------3-4-1-------|
E-----3-4-------------|
A---4-----------------|


B---------4-6-7-6-4-----------------|
F#----4-7-----------7-6-4-----------|
D---4---------------------6-4-3-----|
A-------------------------------6-4-|
E-----------------------------------|
A-----------------------------------|

B-------------------6-----7------11-14-|
F#----4-7---6-9-4-7---6-9---9-12-------|
D---4-----6----------------------------|
A--------------------------------------|
E--------------------------------------|
A--------------------------------------|

Pre Breakdown

B-----------------------------------------------------------|
F#----------------------------------------------------------|
D-----------------------------------------------------------|
A----------8-7---------------------4-------------1-3-1------|
E---3-4----6-5------3h4------1-3-4-2-6-----1-3-4-------4-3--|
A---3-4-000-----000-----000-1-3-4---6-000-------------------|

First 3 Times

B---------|
F#--------|
D---------|
A---------|
E---4-----|
A---4-000-|

4th Time

B-----------------|
F#----------------|
D-----------------|
A-----------------|
E---4-----1-----7-|
A---4-000-1-000-7-|


Breakdown

B-------------------------------|
F#------------------------------|
D-------------------------------|  x2
A-------------------------------|
E---1-1-1-1---111-111---1-1-1-1-|
A---1-1-1-1---111-111---1-1-1-1-|

Then (You Know)

B----------|
F#---------|
D----------|
A----------|
E--------0-|
A--------0-|

Cool Riff 2


B---------------------------------------------|
F#--------------------------------------------|
D---------------------------------------------|
A---------------------------------------------|
E---0-1-4---4h5p4-1-0-<3b>1-0-1--2--1-0-1-----|
A---0-1---0-------1-0------1-0-1-----1-0-1----|

B---------------------------------------------|
F#--------------------------------------------|
D---------------------------------------------|
A---------------------------------------------|
E---0-1-0---0h1p0-1-0-<3b>1-0-1--2--1-0-1-----|
A---0-1---0-------1-0------1-0-1-----1-0-1----|

Pre Breakdown 2

B------------------------------------------------------|
F#-----------------------------------------------------|
D------------------------------------------------------|
A------------------------------------------------------|
E---------------------------------1-0-1-0-1-0-11-11-1--|
A---1-2--1-4--1-5--11-4-1-454-0-1-0-1-0-1-0-22-22-2----|

B---------------------------------------------------------|
F#--------------------------------------------------------|
D---------------------------------------------------------|
A---------------------------------------------------------|
E-----------------------------------2-1-2-1-2-1-22-22-2---|
A----4-5--4-7--4-8--44-7-4-787--1-2-1-2-1-2-1-33-33-3-----|


Breakdown 2

B------------------------------|
F#-----------------------------|
D------------------------------|
A------------------------------|
E---000000000-----000000-0-0-0-|
A---000000000-----000000-0-0-0-|

Outro Riff

B-------------------------------------------12-----|
F#---------------------------------------10--------|
D----------------------------------10-12-----------|
A---7-5-------5-8-10-7-8-5-7-10-12-----------------|
E-------8-7-8--------------------------------------|
A----0-0-0-0-0-0-0--0-0-0-0-0--0--0--0--0--0--0----|


Ya so I would say its at least 70% Correct, if not better. But It is for sure not 
Thanks Though.

- T M T
Добавлено: 22.05.2012
Другие материалы по этой песне:

Страница создана 27.02.2012
http://primanota.ru/whitechapel/the-somatic-defilement-chords.htm
Привет, Гость.
Предлагаем пройти революционный курс по гитаре.
Подарок от PrimaNota.Ru, забирай!