PrimaNota.ru - самый крупный в мире бесплатный архив песенных текстов, аккордов, табулатур и нот


Whitechapel - Father Of Lies - текст песни, таба, видео

Регистрация Запомнить меня
Войти через:  Facebook Google Twitter Vk Yandex Mail.ru

Whitechapel - Father Of Lies - текст песни, таба, видео

Печатать
Просмотров: 233
Whitechapel
Father Of Lies
This Is Exile
7-string
drop-A
not perfect but close
P= pull off
H= Hammer on
*= Pinch Harmonic
~= let ring

|--------------------------------------------|
|--------------------------------------------|
|--------------------------------------------|
|--------------------------------------------|
|--------------------------------------------|
|-1-------------1-------------1--------------|
|-1-000-000-000-1-000-000-000-1-000-000-000--|


|-----------------------|
|-----------------------|
|-----------------------|
|-----------------------|
|-----------------------|
|----1h3----------------|
|-1------1-3-1-0--------|



|----------------------------------------------------------|
|----------------------------------------------------------|
|----------------------------------------------------------|
|----------------------------------------------------------|
|----------------------------------------------------------|
|-1-------------1-------------1----------------1--3--1-----|
|-1-000-000-000-1-000-000-000-1-000-000-000----1--3--1-----|

Sic intro riff

|-----------------------------------------------------|
|-----------------------------------------------------|
|-----------------------------------------------------|
|-----------------------------------------------------|   x4
|-----------------------------------------------------|
|-1--------1----2----1h2h4--------4----5----2h4p1-----|
|---111111---11---11-------222222---22---22-----------|



|-----------------------------------------------------------------|
|-----------------------------------------------------------------|
|-----------------------------------------------------------------|
|-----------------------------------------------------------------|  x2
|-1-1111111-----4-44444444-----3-33333333-----8-7-5---------------|
|-1-------------4--------------3--------------------8-7-5-3h5-----|
|-1-------------4--------------3----------------------------------|

cool riff

|--------------------------------------|
|--------------------------------------|
|--------------------------------------|
|--------------------------------------|
|-1--444444-333333-0--1----------------|
|-1-------------------1----------3*----|
|-1-------------------1--0-3-2-0-------|



|--------------------------------------|
|--------------------------------------|
|--------------------------------------|
|--------------------------------------|
|-1--444444-333333-0-------------------|
|-1-------------------0-1-0-1-3-1------|
|-1-------------------0-1-0-1-3-1------|



|--------------------------------------|
|--------------------------------------|
|--------------------------------------|
|--------------------------------------|
|-1--444444-333333-0--1----------------|
|-1-------------------1----------3-----|
|-1-------------------1--0-3-2-0-------|



|-------------------------------|
|-------------------------------|
|-------------------------------|
|-------------------------------|
|-1--444444-333333-0--1~--3~----|
|-1-------------------1~--3~----|
|-1-------------------1~--3~----|

get the rythem down yourself

|--------------------------------------|
|--------------------------------------|
|--------------------------------------|
|--------------------------------------|  x4
|--------------------------------------|
|-0-00-00-00-00-0000-00-000-1-0-111----|
|-0-00-00-00-00-0000-00-000-1-0-111----|



|----------------------------------------|
|----------------------------------------|
|----------------------------------------|
|----------------------------------------|
|----------------6-h9p6--6--9-p6-8-6-----|
|-0-----5---5-h8-------8--8----------9-8-|
|-0-------8------------------------------| 



|-------------------------------------------|
|-------------------------------------------|
|-------8h11---------------8h11-------------|
|--8h11------11-10-11-8h11------11-10-8-----|  x8
|-------------------------------------------|
|-------------------------------------------|
|-------------------------------------------|

SOLO

|-----------------------------------------------------------------------|
|---------------------------------------------13--------13-11-10-11s16--|
|--8-s-6~--8-s-6-s-10-s-8~--10-s-8-s-11~-10~------11-10-----------------|
|--x-s-x---x-s-x-s-x--s-x---x--s-x-s-x---x------------------------------|
|--6-s-4~--6-s-4-s-8--s-6~--8--s-6-s-9~--8~-----------------------------|
|-----------------------------------------------------------------------|
|-----------------------------------------------------------------------|



|--17p16p14-x8-------------17p16p14-x8---|
|--------------17p16p14-x8---------------|
|----------------------------------------|
|----------------------------------------|
|----------------------------------------|
|----------------------------------------|
|----------------------------------------|

Sry, i couldnt figure out outro of solo

|--------------------|
|--------------------|
|--------------------|
|--------------------|
|--------8-----8-----|
|--6-8-9---8-9---9---|
|--------------------|

evry note below is alternate picked
figure out rythem by urself

|-------------------------------------------------------------|
|----------------------------------------------11----11h13----|
|----------------------------11-10-11----10h11----10----------|
|------8---8---10-11-8-10-11----------10----------------------|
|----8---8---9------------------------------------------------|
|--6----------------------------------------------------------|
|-------------------------------------------------------------|

ALTERNATE PICK

|--------------------------------------------------------------------------|
|--------------------------------------------------------------11----11h13-|
|--------------------------------------------11-10-11----10h11----10-------|
|--------------------------8---10-11-8-10-11----------10-------------------|
|----8---9-------------8-9---8---------------------------------------------|
|--6---9---9-6-8-5-6-8-----------------------------------------------------|
|--------------------------------------------------------------------------|



|-----------------------------------------------|
|-----------------------------------------------|
|---------------------------------------9h12----|
|----------------------------------8h11---------|  x4
|-1--2--1~--------------------7h10--------------|
|-1--2--1~------5----5p4--6h9-------------------|
|-1--2--1~--111---11----------------------------|



|--------------------------------------------------------------|
|--------------------------------------------------------------|
|--3~-5~-6~-8~-5~----------------------------------------------|
|--x--x--x--x--x-----------------------------------------------|
|--1~-3~-4~-6~-3~----------------------------------------------|
|------------------1-1-1-1-1s3-3-3-3-3-3s4---------4s6-6-3~----|
|------------------1-1-1-1-1s3-3-3-3-3-3s4-4-4-4-4-4s6-6-3~----|

breakdown!

|-----------------------------------------------|
|-----------------------------------------------|
|-----------------------------------------------|
|-----------------------------------------------|  x2
|-----------------------------------------------|
|-0-0-0--0-0-0-0-0--00-0-0-0--0-0--00-0-0-0-----|
|-1-1-1--1-1-1-1-1--11-1-1-1--1-1--11-1-1-1-----|

guitar 2 rides this till end

|----------------------------------|
|----------------------------------|
|----------------------------------|
|----------------------------------|
|----------------------------------|
|-1-1--0-0-0-0-00-0-0-2-1-0-0-0----|
|-1-1--0-0-0-0-00-0-0-3-2-1-0-0----|

play all the way to the end

|---------------------|
|---------------------|
|--3~--5~--6~--2~-----|
|--x---x---x---x------|
|--1~--3~--4~--0~-----|
|---------------------|
|---------------------|



this took me like 3 days
its not perfect but im 98% sure its close ha
comment and ratee
Добавлено: 16.03.2012
Другие материалы по этой песне:
  • Аккорды и текст

Страница создана 16.03.2012
http://primanota.ru/whitechapel/father-of-lies-chords.htm
Привет, Гость.
Предлагаем пройти революционный курс по гитаре.
Подарок от PrimaNota.Ru, забирай!