PrimaNota.ru - самый крупный в мире бесплатный архив песенных текстов, аккордов, табулатур и нот


Whitechapel - The Darkest Day Of Man - текст песни, таба, бас-таба, видео

Регистрация Запомнить меня
Войти через:  Facebook Google Twitter Vk Yandex Mail.ru

Whitechapel - The Darkest Day Of Man - текст песни, таба, бас-таба, видео

Печатать
Просмотров: 175
I've Got This tab From a guy called VhMetalx in Youtube who talked to Alex a Ben 
(the guitar players 
whitechapel) and they gave him the tab so i'm pretty sure it's 100% 
correct...although any suggestion will be taken please rate
espalexi666


Duration Legend
---------------
W - whole
H - half
Q - quarter
E - 8th
S - 16th
T - 32nd
X - 64th
. - note dotted
|-n-| - n-tuplets


Tablature Legend
----------------
L - tied note
x - dead note
g - grace note
(n) - ghost note
> - accentuded note
NH - natural harmonic
AH - artificial harmonic
TH - tapped harmonic
SH - semi harmonic
PH - pitch harmonic
h - hammer on
p - pull off
b - bend
br - bendRelease
pb - preBend
pbr - preBendRelease
brb - bendReleaseBend
\n/ - tremolo bar dip
\n - tremolo bar dive
-/n - tremolo bar Release up
/n\ - tremolo bar inverted dip
/n - tremolo bar return
-\n - tremolo bar Release down
S - shift slide
s - legato slide
/ - slide into from below or out of upwards
\ - slide into from above or out of downwards
~ - vibrato
W - wide vibrato
tr - tril'
TP - tremolo picking
T - tapping
S - slap
P - pop
< - fade in
^ - brush up
v - brush down
Guitar
|--3--| |--3--| |--3--| |--3--|
Q Q E E E E E E E E E E E E E E E E 3x
E||-------------------------------------------------------------||
B||-------------------------------------------------------------||
G||-------------------------------------------------------------||
D||-------------------------------------------------------------||
A||--1----0-----------------------------------------------------||
E||--1----0-------4--4--4-----3--3--3-----1--1--1-----3--3--3---||
A||--1----0-------4--4--4-----3--3--3-----1--1--1-----3--3--3---||


|--3--| |--3--| |--3--|
Q Q E E E E E E E E E E E E E Q
--------------------------------------------------------|
--------------------------------------------------------|
--------------------------------------------------------|
---------------------------------------------------5----|
--1----0-------------------------------------------3----|
--1----0-------4--4--4-----3--3--3-----1--1--1-----3----|
--1----0-------4--4--4-----3--3--3-----1--1--1----------|


|--3--| |--3--| |--3--| |--3--|
Q Q E E E E E E E E E E E E E E E E 3x
|-------------------------------------------------------------||
|-------------------------------------------------------------||
|-------------------------------------------------------------||
|-------------------------------------------------------------||
|--1----0-----------------------------------------------------||
|--1----0-------4--4--4-----3--3--3-----1--1--1-----3--3--3---||
|--1----0-------4--4--4-----3--3--3-----1--1--1-----3--3--3---||


PM PM
Q. Q. Q Q. Q. Q
----------------------------------------|
----------------------------------------|
----------------------------------------|
----------------------------------------|
--8------7------4----7------4------3----|
--8------7------4----7------4------3----|
--8------7------4----7------4------3----|


PM PM PM PM PM PM PM PM PM
E E E E E E E E E E E E E E E E
|---------------------------------------------------------|
|---------------------------------------------------------|
|---------------------------------------------------------|
|---------------------------------------------------------|
|---------------------------------------------------------|
|---------------------------------------------------------|
|--13--0--12--0--0--16--0--15--0--0--15--0--13--0--15--0--|


PM PM PM PM PM PM PM
E E E E E E E E E E E E E E E E
-----------------------------------------------------------|
-----------------------------------------------------------|
-----------------------------------------------------------|
-----------------------------------------------------------|
-----------------------------------------------------------|
-----------------------------------------------13--12------|
--13--0--12--0--0--16--0--15--0--0--15--0--13----------15--|


PM PM PM PM PM PM PM PM PM
E E E E E E E E E E E E E E E E
---------------------------------------------------------|
---------------------------------------------------------|
---------------------------------------------------------|
---------------------------------------------------------|
---------------------------------------------------------|
---------------------------------------------------------|
--13--0--12--0--0--16--0--15--0--0--15--0--13--0--15--0--|


PM PM
Q. Q. Q Q. Q. Q
-----------------------------------------||
-----------------------------------------||
-----------------------------------------||
-----------------------------------------||
--8------7------4----7------4------3-----||
--8------7------4----7------4------3-----||
--8------7------4----7------4------3-----||


Q Q Q Q Q Q Q Q
------------------------------------------|
------------------------------------------|
------------------------------------------|
------------------------------------------|
--1----0----------------------------------|
--1----0----------------------------------|
--1----0----------------------------------|


Q Q Q Q W
----------------------------------------|
----------------------------------------|
----------------------------------------|
----------------------------------------|
--4----3--------------11----------------|
--4----3---------------9----------------|
--4----3---------------8----------------|


PM PM PM PM PM PM PM PM PM
E E E E E E E E E E E E E E E E
|--------------------------------------------------|
|--------------------------------------------------|
|--------------------------------------------------|
|--------------------------------------------------|
|--------------------------------------------------|
|--6-----5--------9-----8--------8-----6-----8-----|
|-----0-----0--0-----0-----0--0-----0-----0-----0--|


PM PM PM PM PM PM PM
E E E E E E E E E E E E E E E E
--------------------------------------------------|
--------------------------------------------------|
--------------------------------------------------|
--------------------------------------------------|
-----------------------------------------8--7-----|
--6-----5--------9-----8--------8-----6--------8--|
-----0-----0--0-----0-----0--0-----0--------------|


PM PM PM PM PM PM PM PM PM
E E E E E E E E E E E E E E E E
--------------------------------------------------|
--------------------------------------------------|
--------------------------------------------------|
--------------------------------------------------|
--------------------------------------------------|
--6-----5--------9-----8--------8-----6-----8-----|
-----0-----0--0-----0-----0--0-----0-----0-----0--|


PM PM
Q. Q. Q Q. Q. Q
-----------------------------------------||
-----------------------------------------||
-----------------------------------------||
-----------------------------------------||
--8------7------4----7------4------3-----||
--8------7------4----7------4------3-----||
--8------7------4----7------4------3-----||


Q Q Q Q Q Q Q Q
------------------------------------------|
------------------------------------------|
------------------------------------------|
------------------------------------------|
------------------------------------------|
------------------------------------------|
------------------------------------------|


|--3--| |--3--| |--3--| |--3--| |--3--| |--3--|
E E E E E E E E E E E E E E E E E E E E E E 3x
|---------------------------------------------------------------------||
|---------------------------------------------------------------------||
|---------------------------------------------------------------------||
|---------------------------------------------------------------------||
|---------------------------------------------------------------------||
|--6--6--6--5--5--5-----9--9--9--8--8--8-----------6--6--6--8--8--8---||
|--0--0--0--0--0--0-----0--0--0--0--0--0-----------3--3--3--3--3--3---||


|--3--| |--3--| |--3--| |--3--|
E E E E E E E E E E E E E E E E E E E E
--------------------------------------------------------------|
--------------------------------------------------------------|
--------------------------------------------------------------|
--------------------------------------------------------------|
--------------------------------------------------------------|
--6--6--6--5--5--5-----9--9--9--8--8--8-----------------------|
--0--0--0--0--0--0-----0--0--0--0--0--0-----------------------|


|--3--|
Q Q E Q Q Q E E E E Q 4x
|------------------------------------------------||
|------------------------------------------------||
|------------------------------------------------||
|------------------------------------------------||
|--1----0-------1----0---------------------0-----||
|--1----0-------1----0------------0--0--0--0-----||
|--1----0-------1----0------------1--1--1--0-----||


PM PM PM PM
Q E Q Q E Q E Q Q E
--------------------------------------------|
--------------------------------------------|
--------------------------------------------|
--------------------------------------------|
--6------------6-------6------------6-------|
--3----0--3----3----0--3----0--3----3----0--|
--3----0--3----3----0--3----0--3----3----0--|


PM PM
Q E Q Q E Q E E E E E E
----------------------------------------------|
----------------------------------------------|
----------------------------------------------|
----------------------------------------------|
--6------------6-------6----------6--5-----5--|
--3----0--3----3----0--3----3--4--4--3--4--3--|
--3----0--3----3----0--3----3--4--------4-----|


PM PM PM PM
Q E Q Q E Q E Q Q E
--------------------------------------------|
--------------------------------------------|
--------------------------------------------|
--------------------------------------------|
--5------------5-------5------------5-------|
--2----0--2----2----0--2----0--2----2----0--|
--2----0--2----2----0--2----0--2----2----0--|


PM PM
Q E Q Q E Q E E E E E E
-----------------------------------------------||
-----------------------------------------------||
-----------------------------------------------||
-----------------------------------------------||
--4------------4-------4----------5--4-----4---||
--2----0--2----2----0--2----2--3--3--2--3--2---||
--2----0--2----2----0--2----2--3--------3------||


|--3--|
E E E E E E E E E E E E E E E E E
-----------------------------------------------------|
-----------------------------------------------------|
-----------------------------------------------------|
-----------------------------------------------------|
--3--------3-----5-----6-----------------------------|
-----4--------3-----3-----4--3-----------------3--4--|
--------3-----------------------3--3--3--3--3--------|


|--3--|
E E E E E E E E E E E E E E E E E
-----------------------------------------------------|
-----------------------------------------------------|
-----------------------------------------------------|
-----------------------------------------------------|
--3--------3-----5-----6-----------------------------|
-----4--------3-----3-----4--3-----------------3--4--|
--------3-----------------------3--3--3--3--3--------|


|--3--| |--3--|
E E E E E E E E E E E E E E E E E E
--------------------------------------------------------|
--------------------------------------------------------|
--------------------------------------------------------|
--------------------------------------------------------|
--1--------4-----4--3-----------------------------------|
-----2--------1--------------------1--2-----------1--2--|
--------1--------------1--1--1--1--------1--1--1--------|


|--3--|
E E E E E E E E E E E E E E E E E
------------------------------------------------------||
------------------------------------------------------||
------------------------------------------------------||
------------------------------------------------------||
--1--------4-----4--3--------------------1------------||
-----2--------1--------------------1--2-----2--1--2---||
--------1--------------1--1--1--1---------------------||


PM PM PM PM
Q E Q Q E Q E Q Q E
--------------------------------------------|
--------------------------------------------|
--------------------------------------------|
--------------------------------------------|
--6------------6-------6------------6-------|
--3----0--3----3----0--3----0--3----3----0--|
--3----0--3----3----0--3----0--3----3----0--|


PM PM PM
Q E Q Q E Q E E E E E E
----------------------------------------------|
----------------------------------------------|
----------------------------------------------|
----------------------------------------------|
--6------------6-------6----------6--5-----5--|
--3----0--3----3----0--3----3--4--4--3--4--3--|
--3----0--3----3----0--3----3--4--------4-----|


PM PM PM PM
Q E Q Q E Q E Q Q E
--------------------------------------------|
--------------------------------------------|
--------------------------------------------|
--------------------------------------------|
--5------------5-------5------------5-------|
--2----0--2----2----0--2----0--2----2----0--|
--2----0--2----2----0--2----0--2----2----0--|


PM PM
Q E Q Q E E E E E E E E E
-----------------------------------------------|
-----------------------------------------------|
-----------------------------------------------|
-----------------------------------------------|
--4------------4-------------------------------|
--2----0--2----2----0-----------2--1-----------|
--2----0--2----2----0--4--3--0--------3--0--2--|


|--3--| |--3--| |--3--| |--3--|
Q Q E E E E E E E E E E E E E E E E 3x
|-------------------------------------------------------------||
|-------------------------------------------------------------||
|-------------------------------------------------------------||
|-------------------------------------------------------------||
|--1----0-----------------------------------------------------||
|--1----0-------4--4--4-----3--3--3-----1--1--1-----3--3--3---||
|--1----0-------4--4--4-----3--3--3-----1--1--1-----3--3--3---||


|--3--| |--3--| |--3--|
Q Q E E E E E E E E E E E E E E E E E E
---------------------------------------------------------|-----------||
---------------------------------------------------------|-----------||
---------------------------------------------------------|-----------||
---------------------------------------------------------|-----------||
--1----0-------------------------------------------2--3--|-----------||
--1----0-------4--4--4-----3--3--3-----1--1--1-----0--1--|--0--1--0--||
--1----0-------4--4--4-----3--3--3-----1--1--1-----------|--0--1--0--||
Добавлено: 08.04.2012
Другие материалы по этой песне:

Страница создана 08.04.2012
http://primanota.ru/whitechapel/the-darkest-day-of-man-chords.htm
Привет, Гость.
Предлагаем пройти революционный курс по гитаре.
Подарок от PrimaNota.Ru, забирай!