PrimaNota.ru - самый крупный в мире бесплатный архив песенных текстов, аккордов, табулатур и нот


Wednesday 13 - Something Wicked This Way Comes - таба, бас-таба, видео

Регистрация Запомнить меня
Войти через:  Facebook Google Twitter Vk Yandex Mail.ru

Wednesday 13 - Something Wicked This Way Comes - таба, бас-таба, видео

Печатать
Просмотров: 134
-------------------------------------------------------------------------------
                             Something Wicked This Way Comes - Wednesday 13
-------------------------------------------------------------------------------
Tabbed by:Jonny Ford
Youtube: www.youtube.com/jonnyrufc
twitter:http://twitter.com/J0NNYF0RD

Tuning:Half-Step Down: Eb Ab Db Gb Bb eb


Intro:

e|--------------------------------------------------------------------------|
B|--------------------------------------------------------------------------|
G|-5555-5555-5555-5555-5555-5555-5555-5555-5555-555-55-555-5555-------------|
D|-5555-5555-5555-5555-5555-5555-5555-5555-5555-555-55-555-5555-------------|
A|-3333-3333-3333-3333-3333-3333-3333-3333-3333-333-33-333-3333-------------|
E|--------------------------------------------------------------------------|
   xxxx xxxx xxxx xxxx xxxx xxxx xxxx xxxx xxxx xxx    xxx xxxx
e|---------------------------------------------------------------------------|
B|---------------------------------------------------------------------------|
G|---------------------------------------------------------------------------|
D|-5555-555-55-555-5555--7777-777-77-777-7777-3333-3333-5--------------------|
A|-5555-555-55-555-5555--7777-777-77-777-7777-3333-3333-5--------------------|
E|-3333-333-33-333-3333--5555-555-55-555-5555-1111-1111-3--------------------|
   xxxx xxx    xxx xxxx  xxxx xxx    xxx xxxx xxxx xxxx
e|-----------------------------------------------------------------------------------|
B|-----------------------------------------------------------------------------------|
G|-5555-5555-5555-5555---------------------------------------------------------------|
D|-5555-5555-5555-5555-5555-5555-5555-5555-7777-7777-7777-7777-3333-3333-5555-5555---|
A|-3333-3333-3333-3333-5555-5555-5555-5555-7777-7777-7777-7777-3333-3333-5555-5555---|
E|---------------------3333-3333-3333-3333-5555-5555-5555-5555-1111-1111-3333-3333---|


Verse:

e|------------------------------------------------------------|---------------|
B|------------------------------------------------------------|---------------|
G|-55555/6-55555/6-55555/6-55555/6-55555/6-55555/6-55555/6--5-|---------------|
D|-55555/6-55555/6-55555/6-55555/6-55555/6-55555/6-55555/6--5-|---------------|
A|-33333/4-33333/4-33333/6-33333/4-33333/4-33333/4-33333/4--3-|---------------|
E|------------------------------------------------------------|---------------|

e|-|----------------------------------------------------------x2|----------------|
B|-|------------------------------------------------------------|----------------|
G|-|55555/6-55555/6---------------------------------------------|----------------|
D|-|55555/6-55555/6-555555-555555-777777-777777-333333-555555---|----------------|
A|-|33333/4-33333/4-555555-555555-777777-777777-333333-555555---|----------------|
E|-|----------------333330-333330-555550-555550-111110-333330---|----------------|


Chorus:

e|---------------------------------------------------------------------------------x2--|
B|-------------------------------------------------------------------------------------|
G|-5555-5555-5555-5555-----------------------------------------------------------------|
D|-5555-5555-5555-5555-5555-5555-5555-5555-7777-7777-7777-7777-3333-3333-5555-5555-----|
A|-3333-3333-3333-3333-5555-5555-5555-5555-7777-7777-7777-7777-3333-3333-5555-5555-----|
E|---------------------3333-3333-3333-3333-5555-5555-5555-5555-1111-1111-3333-3333-----|


Verse:

e|------------------------------------------------------------|---------------|
B|------------------------------------------------------------|---------------|
G|-55555/6-55555/6-55555/6-55555/6-55555/6-55555/6-55555/6--5-|---------------|
D|-55555/6-55555/6-55555/6-55555/6-55555/6-55555/6-55555/6--5-|---------------|
A|-33333/4-33333/4-33333/6-33333/4-33333/4-33333/4-33333/4--3-|---------------|
E|------------------------------------------------------------|---------------|

e|-|----------------------------------------------------------x2|----------------|
B|-|------------------------------------------------------------|----------------|
G|-|55555/6-55555/6---------------------------------------------|----------------|
D|-|55555/6-55555/6-555555-555555-777777-777777-333333-555555---|----------------|
A|-|33333/4-33333/4-555555-555555-777777-777777-333333-555555---|----------------|
E|-|----------------333330-333330-555550-555550-111110-333330---|----------------|


Chorus:

e|---------------------------------------------------------------------------------x2--|
B|-------------------------------------------------------------------------------------|
G|-5555-5555-5555-5555-----------------------------------------------------------------|
D|-5555-5555-5555-5555-5555-5555-5555-5555-7777-7777-7777-7777-3333-3333-5555-5555-----|
A|-3333-3333-3333-3333-5555-5555-5555-5555-7777-7777-7777-7777-3333-3333-5555-5555-----|
E|---------------------3333-3333-3333-3333-5555-5555-5555-5555-1111-1111-3333-3333-----|


Solo:

e|-b15-13-15-13-13-12---------------------------------------------------------------|
B|--------------------13-b15-br15-15-15~~--------------------------15----17------18-|
G|-----------------------------------------14-17-14-14-17-14-17-14----14-----14-----|
D|----------------------------------------------------------------------------------|
A|----------------------------------------------------------------------------------|
E|----------------------------------------------------------------------------------|

e|---------------------------------------------------------------------------|
B|-20-18-17-b15-br15-13----13----b13-br13-12-13------------------------------|
G|----------------------12----12---------------------------------------------|
D|---------------------------------------------------------------------------|
A|---------------------------------------------------------------------------|
E|---------------------------------------------------------------------------|

e|-------------------------------------------------13----12----------------------|
B|-------------------------------------13----15-------------b15-br15-13-13~~~----|
G|-/5-5-5-/7-/9-/10-/12-12-/14-\12-12-----12----12----12-------------------------|
D|-------------------------------------------------------------------------------|
A|-------------------------------------------------------------------------------|
E|-------------------------------------------------------------------------------|

e|---------------------------------------------------------------------------|
B|----13----b13-br13-------------13----/15~-b15-br15-13~~~-------------------|
G|-12----12----------12-12~~--12----12---------------------------------------|
D|---------------------------------------------------------------------------|
A|---------------------------------------------------------------------------|
E|---------------------------------------------------------------------------|


Builds Back into the Chorus:

e|--------------------------------------------------------------------------|
B|--------------------------------------------------------------------------|
G|-5555-5555-5555-5555-5555-5555-5555-5555-5555-555-55-555-5555-------------|
D|-5555-5555-5555-5555-5555-5555-5555-5555-5555-555-55-555-5555-------------|
A|-3333-3333-3333-3333-3333-3333-3333-3333-3333-333-33-333-3333-------------|
E|--------------------------------------------------------------------------|
   xxxx xxxx xxxx xxxx xxxx xxxx xxxx xxxx xxxx xxx    xxx xxxx
e|------------------------------------------------------------------------------------|
B|------------------------------------------------------------------------------------|
G|------------------------------------------------------------------------------------|
D|-5555-555-55-555-5555--7777-777-77-777-7777-3333-3333-5555-5555---------------------|
A|-5555-555-55-555-5555--7777-777-77-777-7777-3333-3333-5555-5555---------------------|
E|-3333-333-33-333-3333--5555-555-55-555-5555-1111-1111-3333-3333---------------------|
   xxxx xxx    xxx xxxx  xxxx xxx    xxx


Chorus:


e|---------------------------------------------------------------------------------x2|
B|-----------------------------------------------------------------------------------|
G|-5555-5555-5555-5555---------------------------------------------------------------|
D|-5555-5555-5555-5555-5555-5555-5555-5555-7777-7777-7777-7777-3333-3333-5555-5555---|
A|-3333-3333-3333-3333-5555-5555-5555-5555-7777-7777-7777-7777-3333-3333-5555-5555---|
E|---------------------3333-3333-3333-3333-5555-5555-5555-5555-1111-1111-3333-3333---|


Outro:


e|---------------------------|
B|---------------------------|
G|-55555/6-55555/6-55555/6-5-|
D|-55555/6-55555/6-55555/6-5-|
A|-33333/4-33333/4-33333/6-3-|
E|---------------------------|



************************************

| /   slide up
| \   slide down
| h   hammer-on
| p   pull-off
| ~   vibrato
| +   harmonic
| x   Mute note
| b   Bend
| pb  Pre-bend
| br  Bend release
| pbr Pre-bend release
| brb Bend release bend

************************************
Добавлено: 17.04.2012
Другие материалы по этой песне:

Страница создана 17.04.2012
http://primanota.ru/wednesday-13/something-wicked-this-way-comes-chords.htm
Привет, Гость.
Предлагаем пройти революционный курс по гитаре.
Подарок от PrimaNota.Ru, забирай!