PrimaNota.ru - самый крупный в мире бесплатный архив песенных текстов, аккордов, табулатур и нот


Wednesday 13 - Haunt Me - текст песни, таба, бас-таба, видео

Регистрация Запомнить меня
Войти через:  Facebook Google Twitter Vk Yandex Mail.ru

Wednesday 13 - Haunt Me - текст песни, таба, бас-таба, видео

Печатать
Просмотров: 315
Wednesday 13's Haunt me solo. Many play it wrong. But here it is.

I play it in standard tuning.


e|-13------------------------------------------------------------------|
B|----13-11-13-14-13-11-9-11-9--------------13-11-13-14-13-11-9-11-9---|
G|-----------------------------10--10/13-12-------------------------10-|
D|---------------------------------------------------------------------|
A|---------------------------------------------------------------------|
E|---------------------------------------------------------------------|


e|---------------------------------------------------------------------|
B|---------------------------------------------------------------------|
G|-10-13-13-12-12------------------------------------------------------|
D|---------------------------------------------------------------------|
A|---------------------------------------------------------------------|
E|---------------------------------------------------------------------|
Добавлено: 10.08.2013
Другие материалы по этой песне:

Страница создана 10.06.2012
http://primanota.ru/wednesday-13/haunt-me-chords.htm
Привет, Гость.
Предлагаем пройти революционный курс по гитаре.
Подарок от PrimaNota.Ru, забирай!