PrimaNota.ru - самый крупный в мире бесплатный архив песенных текстов, аккордов, табулатур и нот


Wednesday 13 - Mister Motherfucker 2012 - таба, видео

Регистрация Запомнить меня
Войти через:  Facebook Google Twitter Vk Yandex Mail.ru

Wednesday 13 - Mister Motherfucker 2012 - таба, видео

Печатать
Просмотров: 99
[ Intro/Verse ]

D----------------------|
A----------------------|
F----------------------|
C---7--7--7--7--7--7-7-|
G---7--7--7--7--7--7-7-|
C---7--7--7--7--7--7-7-|

[ Pre-Chorus ]

D------------------------------------------------|
A------------------------------------------------|
F------------------------------------------------|
C---7----------7--7--7--7--5/7--7--7--7--7--5/7--|
G---5---(x16)--7--7--7--7--5/7--7--7--7--7--5/7--|
C--------------7--7--7--7--5/7--7--7--7--7--5/7--|

D-----------------------------------|
A-----------------------------------|
F-----------------------------------|
C---7-----------9-------------------|
G---5---(x16)---7--(x16)------------|
C-----------------------------------|

[ Chorus ]

D------------------------------------------------|
A------------------------------------------------|
F------------------------------------------------|
C----7--7--7--7--5/7----------7--7--7--7--10/7---|
G----7--7--7--7--5/7---(x6)---7--7--7--7--10/7---|
C----7--7--7--7--5/7----------7--7--7--7--10/7---|

[ Under the solo ]

D--------------------------------------------|
A--------------------------------------------|
F--------------------------------------------|
C----7--7--7--7--5/7------7--7--7--7--10/7---|
G----7--7--7--7--5/7------7--7--7--7--10/7---|
C----7--7--7--7--5/7------7--7--7--7--10/7---| (x4)
Добавлено: 23.10.2013
Другие материалы по этой песне:
  • Аккорды и текст

Страница создана 23.10.2013
http://primanota.ru/wednesday-13/mister-motherfucker-2012-chords.htm
Привет, Гость.
Предлагаем пройти революционный курс по гитаре.
Подарок от PrimaNota.Ru, забирай!