PrimaNota.ru - самый крупный в мире бесплатный архив песенных текстов, аккордов, табулатур и нот


Wednesday 13 - Runnin Down A Dream - текст песни, таба, видео

Регистрация Запомнить меня
Войти через:  Facebook Google Twitter Vk Yandex Mail.ru

Wednesday 13 - Runnin Down A Dream - текст песни, таба, видео

Печатать
Просмотров: 108
Уроки эстрадного вокала в Санкт-Петербурге
Авторы: Jeff Lynne, Mike Campbell, Tom Petty

-----------------------------------------------------------------------------
                       Wednesday 13 - Runnin' Down a Dream
-----------------------------------------------------------------------------

Tabbed by: Metalrock4ever

Tuning: CGCFAD

If you're interested in the other tabs for the Bloodwork album, I've tabbed the other 5 
songs (you can see them on my profile page). A friend of mine - Lukkysixx - has also 
done Return of the Living Dead. You can go to his profile via mine.

Intro:
(Not sure about the first few seconds, but here's the rest)
D|-----------------------------------------------|
A|-----------------------------------------------|
F|-----------------------------------------------|
C|-4444--------4444--------4444--------4444-4444-|
G|-4444--------4444--------4444--------4444-4444-|
C|-4444-10-9-7-4444-10-9-7-4444-10-9-7-4444-4444-|

Solo Part:
D|-------------------------------------------------|
A|-------------------------------------------------|
F|------6-5-4--------6-5-4--------6-5-4------------|
C|-4444-------7-4444-------7-4444-------7-4444-4444|
G|-------------------------------------------------|
C|-------------------------------------------------|


Verse:
D|---------------------------------------------|
A|---------------------------------------------|
F|---------------------------------------------|
C|---------------------------------------------| x2
G|------4x---------4x---------4x---------4x----|
C|-4x4x----4x-4x4x----4x-4x4x----4x-4x4x----4x-|

D|---------------------------------------------|
A|---------------------------------------------|
F|---------------------------------------------|
C|---------------------------------------------|
G|------2x---------2x---------2x---------2x----|
C|-2x2x----2x-2x2x----2x-2x2x----2x-2x2x----2x-|

D|---------------------------------------------|
A|---------------------------------------------|
F|---------------------------------------------|
C|---------------------------------------------|
G|------4x---------4x---------4x---------4x----|
C|-4x4x----4x-4x4x----4x-4x4x----4x-4x4x----4x-|

Solo Part:
D|---------|
A|---------|
F|-6-5-4---|
C|-------7-|
G|---------|
C|---------|

Then...
D|-----------------------------------------------|
A|-----------------------------------------------|
F|-----------------------------------------------|
C|-4444--------4444--------3333--------4444-4444-|
G|-4444--------4444--------3333--------4444-4444-|
C|-4444-10-9-7-4444-10-9-7-3333-10-9-7-4444-4444-|

Solo Part:
D|--------------------------------------------------|
A|--------------------------------------------------|
F|------6-5-4--------6-5-4--------6-5-4-------------|
C|-4444-------7-4444-------7-3333-------7-4444-4444-|
G|--------------------------------------------------|
C|--------------------------------------------------|


Chorus:
D|-------------------------------------------------------------|
A|-------------------------------------------------------------|
F|-------------------------------------------------------------|
C|-99-77-4444-44-77-9999-99-77-4444-44-77-9999-99-77-4444-4444-|
G|-99-77-4444-44-77-9999-99-77-4444-44-77-9999-99-77-4444-4444-|
C|-99-77-4444-44-77-9999-99-77-4444-44-77-9999-99-77-4444-4444-|

Solo Part:
D|--------------------------------------------------------|
A|-12~-10~-7~-7~-10~-12~-12~-10~-7~-7~-10~-12~-12~-10~-7~-|
F|--------------------------------------------------------|
C|--------------------------------------------------------|
G|--------------------------------------------------------|
C|--------------------------------------------------------|


Post-Chorus:
D|------------------|
A|------------------|
F|------------------|
C|-4444-10-9-7-4444-|
G|-4444-10-9-7-4444-|
C|-4444-10-9-7-4444-|

D|-----------------|
A|-----------------|
F|------6-5-4------|
C|-4444-------4444-|
G|-----------------|
C|-----------------|


Verse 2:
D|-----------------------------|
A|-----------------------------|
F|-----------------------------|
C|-----------------------------| x2
G|----4------4------4------4---|
C|-44---4-44---4-44---4-44---4-|

D|-----------------------------|
A|-----------------------------|
F|-----------------------------|
C|-----------------------------|
G|----2------2------2------2---|
C|-22---2-22---2-22---2-22---2-|

D|-----------------------------|
A|-----------------------------|
F|-----------------------------|
C|-----------------------------|
G|----4------4------4------4---|
C|-44---4-44---4-44---4-44---4-|

Solo Part:
D|---------|
A|---------|
F|-6-5-4---|
C|-------7-|
G|---------|
C|---------|

Then...
D|-----------------------------------------------|
A|-----------------------------------------------|
F|-----------------------------------------------|
C|-4444--------4444--------3333--------4444-4444-|
G|-4444--------4444--------3333--------4444-4444-|
C|-4444-10-9-7-4444-10-9-7-3333-10-9-7-4444-4444-|

Solo Part:
D|--------------------------------------------------|
A|--------------------------------------------------|
F|------6-5-4--------6-5-4--------6-5-4-------------|
C|-4444-------7-4444-------7-3333-------7-4444-4444-|
G|--------------------------------------------------|
C|--------------------------------------------------|


Chorus 2:
D|-------------------------------------------------------------|
A|-------------------------------------------------------------|
F|-------------------------------------------------------------|
C|-99-77-4444-44-77-9999-99-77-4444-44-77-9999-99-77-4444-4444-|
G|-99-77-4444-44-77-9999-99-77-4444-44-77-9999-99-77-4444-4444-|
C|-99-77-4444-44-77-9999-99-77-4444-44-77-9999-99-77-4444-4444-|

Solo Part:
D|--------------------------------------------------------|
A|-12~-10~-7~-7~-10~-12~-12~-10~-7~-7~-10~-12~-12~-10~-7~-|
F|--------------------------------------------------------|
C|--------------------------------------------------------|
G|--------------------------------------------------------|
C|--------------------------------------------------------|


Post-Chorus:
D|------------------|
A|------------------|
F|------------------|
C|-4444-10-9-7-4444-|
G|-4444-10-9-7-4444-|
C|-4444-10-9-7-4444-|

D|-----------------|
A|-----------------|
F|------6-5-4------|
C|-4444-------4444-|
G|-----------------|
C|-----------------|


Bridge:
D|-------------------------------------------------------------|
A|-------------------------------------------------------------|
F|-------------------------------------------------------------|
C|-2222-2222-0000-2222-4444-4444-4444-4444-2222-2222-0000-2222-|
G|-2222-2222-0000-2222-4444-4444-4444-4444-2222-2222-0000-2222-|
C|-2222-2222-0000-2222-4444-4444-4444-4444-2222-2222-0000-2222-|

Solo Part:
D|--------------------------------------------------------------|
A|--------------------------------------------------------------|
F|-9b9b9b9b-7h9999-7h9999-7b7b7b7b-9b9b9b9b-9h11-9h11-9h11-9h11-|
C|--------------------------------------------------------------|
G|--------------------------------------------------------------|
C|--------------------------------------------------------------|

D|--------------------------------------|
A|-10---------10---------10-------------|
F|----11-9-------11-9-------11-9----11~-|
C|---------11---------11---------11-----|
G|--------------------------------------|
C|--------------------------------------|

D|-14b~-12h14b-14b~-|
A|------------------|
F|------------------|
C|------------------|
G|------------------|
C|------------------|


Verse 3:
D|---------------------------------------------|
A|---------------------------------------------|
F|---------------------------------------------|
C|---------------------------------------------| x2
G|------4x---------4x---------4x---------4x----|
C|-4x4x----4x-4x4x----4x-4x4x----4x-4x4x----4x-|

D|---------------------------------------------|
A|---------------------------------------------|
F|---------------------------------------------|
C|---------------------------------------------|
G|------2x---------2x---------2x---------2x----|
C|-2x2x----2x-2x2x----2x-2x2x----2x-2x2x----2x-|

D|---------------------------------------------|
A|---------------------------------------------|
F|---------------------------------------------|
C|---------------------------------------------|
G|------4x---------4x---------4x---------4x----|
C|-4x4x----4x-4x4x----4x-4x4x----4x-4x4x----4x-|

Solo Part:
D|---------|
A|---------|
F|-6-5-4---|
C|-------7-|
G|---------|
C|---------|

Then...
D|-----------------------------------------------|
A|-----------------------------------------------|
F|-----------------------------------------------|
C|-4444--------4444--------3333--------4444-4444-|
G|-4444--------4444--------3333--------4444-4444-|
C|-4444-10-9-7-4444-10-9-7-3333-10-9-7-4444-4444-|

Solo Part:
D|--------------------------------------------------|
A|--------------------------------------------------|
F|------6-5-4--------6-5-4--------6-5-4-------------|
C|-4444-------7-4444-------7-3333-------7-4444-4444-|
G|--------------------------------------------------|
C|--------------------------------------------------|


Chorus 3:
D|-------------------------------------------------------------|
A|-------------------------------------------------------------|
F|-------------------------------------------------------------|
C|-99-77-4444-44-77-9999-99-77-4444-44-77-9999-99-77-4444-4444-|
G|-99-77-4444-44-77-9999-99-77-4444-44-77-9999-99-77-4444-4444-|
C|-99-77-4444-44-77-9999-99-77-4444-44-77-9999-99-77-4444-4444-|

Solo Part:
D|--------------------------------------------------------|
A|-12~-10~-7~-7~-10~-12~-12~-10~-7~-7~-10~-12~-12~-10~-7~-|
F|--------------------------------------------------------|
C|--------------------------------------------------------|
G|--------------------------------------------------------|
C|--------------------------------------------------------|


Post-Chorus:
D|------------------|
A|------------------|
F|------------------|
C|-4444-10-9-7-4444-|
G|-4444-10-9-7-4444-|
C|-4444-10-9-7-4444-|

D|-----------------|
A|-----------------|
F|------6-5-4------|
C|-4444-------4444-|
G|-----------------|
C|-----------------|


Outro:
D|----------------------------------------------------------------|
A|----------------------------------------------------------------|
F|----------------------------------------------------------------|
C|-2222-2222-0000-2222-4444-4444-4444-4444-2222-2222-0000-2222-4~-|
G|-2222-2222-0000-2222-4444-4444-4444-4444-2222-2222-0000-2222-4~-|
C|-2222-2222-0000-2222-4444-4444-4444-4444-2222-2222-0000-2222-4~-|

Solo Part:
D|--------------------------------------------------------------|
A|--------------------------------------------------------------|
F|-9b9b9b9b-7h9999-7h9999-7b7b7b7b-9b9b9b9b-9h11-9h11-9h11-9h11-|
C|--------------------------------------------------------------|
G|--------------------------------------------------------------|
C|--------------------------------------------------------------|

(Double time)
D|-----------------------------------|
A|-10---------10---------10----------|
F|----11-9-------11-9-------11-9-----|
C|---------11---------11---------11--|  x2
G|-----------------------------------|
C|-----------------------------------|

D|-14b~-12h14b-14b~-14~-|
A|----------------------|
F|----------------------|
C|----------------------|
G|----------------------|
C|----------------------|


************************************

| /   slide up
| \   slide down
| h   hammer-on
| ~   vibrato
| x   Mute note
| b   Bend

************************************

If you have any comments/corrections, please say in either the comments box or leave me
a message. Good luck and enjoy!
Добавлено: 05.09.2013
Другие материалы по этой песне:
  • Аккорды и текст

Страница создана 13.08.2013
http://primanota.ru/wednesday-13/runnin-down-a-dream-chords.htm
Привет, Гость.
Предлагаем пройти революционный курс по гитаре.
Подарок от PrimaNota.Ru, забирай!