PrimaNota.ru - самый крупный в мире бесплатный архив песенных текстов, аккордов, табулатур и нот


We Came As Romans - I Knew You Were Trouble - таба, видео

Регистрация Запомнить меня
Войти через:  Facebook Google Twitter Vk Yandex Mail.ru

We Came As Romans - I Knew You Were Trouble - таба, видео

Печатать
Просмотров: 356
Уроки эстрадного вокала в Санкт-Петербурге
Авторы: Taylor Swift, Max Martin, Shellback

-------------------------------------------------------------------------------
                             I Knew You Were Trouble - We Came as Romans
-------------------------------------------------------------------------------
                 *******PLEASE RATE AND COMMENT*******

**THIS IS ONLY THE DISTORTED GUITAR NOT THE CLEAN PART AT THE BEGINNING**

Tabbed by: iyffe (In Your Face Fuck Everything)
E-mail: nathanhager056@yahoo.com

Tuning: Drop B (B F# B E G# C#)
     
---------------------------------------------------------------
                        (Pre-Chorus)

C#|---------------------------------------------------------|
G#|---------------------------------------------------------|
 E|---------------------------------------------------------|
 B|-7-7-7-7-7-7-7-7-7-7-7-7-7-7-2-2-2-2-2-2-2-2-2-2-2-2-2-2-| 
F#|-7-7-7-7-7-7-7-7-7-7-7-7-7-7-2-2-2-2-2-2-2-2-2-2-2-2-2-2-|
 B|-7-7-7-7-7-7-7-7-7-7-7-7-7-7-2-2-2-2-2-2-2-2-2-2-2-2-2-2-|

C#|---------------------------------------------------------|
G#|---------------------------------------------------------|
 E|---------------------------------------------------------|
 B|---------------------------------------------------------|
F#|-----7-------------7-------------------------------------|
 B|-4-4---4-4-7-4-4-4---4-7-6-7-0-0-11-0-0-9-7-7-11---------|

-----------------------------------------------------------------------
                          (Chorus)

C#|-----------------------------------------------------------------|
G#|-----------------------------------------------------------------|
 E|-----------------------------------------------------------------|
 B|-4-4-4-4-4-4-4-4-0-0-0-0-0-0-0-0-2-2-2-2-2-2-2-2-7-7-7-7-2-2-2-2-|
F#|-4-4-4-4-4-4-4-4-0-0-0-0-0-0-0-0-2-2-2-2-2-2-2-2-7-7-7-7-2-2-2-2-|
 B|-4-4-4-4-4-4-4-4-0-0-0-0-0-0-0-0-2-2-2-2-2-2-2-2-7-7-7-7-2-2-2-2-|

C#|-----------------------------------------------------------------|
G#|-----------------------------------------------------------------|
 E|-----------------------------------------------------------------|
 B|-4-4-4-4-4-4-4-4-0-0-0-0-0-0-0-0-2-2-2-2-2-2-2-2-7---------------|
F#|-4-4-4-4-4-4-4-4-0-0-0-0-0-0-0-0-2-2-2-2-2-2-2-2-7---------------|
 B|-4-4-4-4-4-4-4-4-0-0-0-0-0-0-0-0-2-2-2-2-2-2-2-2-7---------------|

C#|----------------------|
G#|----------------------|
 E|----------------------|
 B|-4\-0--2\----7-7--2-2-| x2
F#|-4\-0--2\----7-7--2-2-|
 B|-4\-0--2\--x-7-7--2-2-|

---------------------------------------------------------------------------------
                                    (Verse 2)

C#|-------------|     C#|-------------|     C#|-------------------------------|
G#|-------------|     G#|-------------|     G#|-------------------------------|
 E|-------------|      E|-------------|      E|-------------------------------|
 B|-2--2-2--2-2-| x2   B|-4--4-4--4-4-| x2   B|-0--0-0--0-0--0-0-0-0-0-0-0-0--|
F#|-2--2-2--2-2-|     F#|-4--4-4--4-4-|     F#|-0--0-0--0-0--0-0-0-0-0-0-0-0--|
 B|-2--2-2--2-2-|      B|-4--4-4--4-4-|      B|-0--0-0--0-0--0-0-0-0-0-0-0-0--|

C#|-----------------------------------------------------|
G#|-----------------------------------------------------|
 E|-----------------------------------------------------|
 B|---------------------------------------6---7p6h7p6---|
F#|-----12-----11---12p11-12/14-----7-----------------7-|
 B|-7-7----7-7----7-------------2-2---2-2---2-----------|

C#|---------------------------------------------------------|
G#|---------------------------------------------------------|
 E|---------------------------------------------------------|
 B|---------------------------------------------------------|
F#|-----7-------------7-------------------------------------|
 B|-4-4---4-4-7-4-4-4---4-7-6-7-0-0-11-0-0--0-0-0-0-0-0-0-0-|

---------------------------------------------------------------------------------
            (Pre-Chorus)

C#|---------------------------|
G#|---------------------------|
 E|---------------------------|
 B|-7--2--4--0--0-0-0-0-0-0-0-|
F#|-7--2--4--0--0-0-0-0-0-0-0-|
 B|-7--2--4--0--0-0-0-0-0-0-0-|

--------------------------------------------
                  (Chorus)

C#|--------------------------------------|
G#|--------------------------------------|
 E|--------------------------------------|
 B|-4-4--4--0-0-0-0-0--0-2-2--2-7-7--2-2-|
F#|-4-4--4--0-0-0-0-0--0-2-2--2-7-7--2-2-|
 B|-4-4--4--0-0-0-0-0--0-2-2--2-7-7--2-2-|

C#|---------------------------------|
G#|---------------------------------|
 E|---------------------------------|
 B|-4-4--4--0-0-0-0-0--0-2-2--2-7-7-|
F#|-4-4--4--0-0-0-0-0--0-2-2--2-7-7-|
 B|-4-4--4--0-0-0-0-0--0-2-2--2-7-7-|

C#|--------------------------------------|
G#|--------------------------------------|
 E|--------------------------------------|
 B|-4-4--4--0-0-0-0-0--0-2-2--2-7-7--2-2-| x2
F#|-4-4--4--0-0-0-0-0--0-2-2--2-7-7--2-2-|
 B|-4-4--4--0-0-0-0-0--0-2-2--2-7-7--2-2-|

C#|----------------------|
G#|----------------------|
 E|----------------------|
 B|-4\-0--2\----7-7--2-2-| x2
F#|-4\-0--2\----7-7--2-2-|
 B|-4\-0--2\--x-7-7--2-2-|

--------------------------------------------
                   (Outro)                                             

C#|--------------------------------------|
G#|--------------------------------------|
 E|--------------------------------------|
 B|-4-4--4--0-0-0-0-0--0-2-2--2-7-7--2-2-|
F#|-4-4--4--0-0-0-0-0--0-2-2--2-7-7--2-2-|
 B|-4-4--4--0-0-0-0-0--0-2-2--2-7-7--2-2-|

C#|--------------------------------------|
G#|--------------------------------------|
 E|--------------------------------------|
 B|-4-4--4--0-0-0-0-0--0-2-2--2-7-7--2-2-|
F#|-4-4--4--0-0-0-0-0--0-2-2--2-7-7--2-2-|
 B|-4-4--4--0-0-0-0-0--0-2-2--2-7-7--2-2-|
  
     Let all chords run together here.
C#|--------------------------------------|
G#|--------------------------------------|
 E|--------------------------------------|
 B|-4-4--4--0-0-0-0-0--0-2-2--2-7-7--2-2-| x2
F#|-4-4--4--0-0-0-0-0--0-2-2--2-7-7--2-2-|
 B|-4-4--4--0-0-0-0-0--0-2-2--2-7-7--2-2-|  

C#|----------------------|
G#|----------------------|
 E|----------------------|
 B|-4\-0--2\----7-7--2-2-| x2
F#|-4\-0--2\----7-7--2-2-|
 B|-4\-0--2\--x-7-7--2-2-|
  
     Let all chords run together here.
C#|--------------------------------------|
G#|--------------------------------------|
 E|--------------------------------------|
 B|-4-4--4--0-0-0-0-0--0-2-2--2-7-7--2-2-| x2
F#|-4-4--4--0-0-0-0-0--0-2-2--2-7-7--2-2-|
 B|-4-4--4--0-0-0-0-0--0-2-2--2-7-7--2-2-|  

--------------------------------------------

************************************

| /   slide up
| \   slide down
| h   hammer-on
| p   pull-off
| ~   vibrato
| +   harmonic
| x   Mute note
| b   Bend
| pb  Pre-bend
| br  Bend release
| pbr Pre-bend release
| brb Bend release bend

************************************
Добавлено: 28.07.2015
Вам также может быть интересно:
Другие материалы по этой песне:
  • Аккорды и текст

Страница создана 28.07.2015
http://primanota.ru/we-came-as-romans/i-knew-you-were-trouble-chords.htm
Привет, Гость.
Предлагаем пройти революционный курс по гитаре.
Подарок от PrimaNota.Ru, забирай!