PrimaNota.ru - самый крупный в мире бесплатный архив песенных текстов, аккордов, табулатур и нот


We Came As Romans - To Move On Is To Grow - текст песни, таба, бас-таба, видео

Регистрация Запомнить меня
Войти через:  Facebook Google Twitter Vk Yandex Mail.ru

We Came As Romans - To Move On Is To Grow - текст песни, таба, бас-таба, видео

Печатать
Просмотров: 193
-------------------------------------------------------------------------------
                             TO MOVE ON IS TO GROW – We Came As Romans
-------------------------------------------------------------------------------

INTRO
|----------------------------------------------------------------|
|---6---6---6---6---6---6---6------------------------------------|
|----------------------------------------------------------------|
|-55-555-888-888-333-333-333-----5-------8-------3---------------|
|--------------------------------5-------8-------3---------------|
|--------------------------------5-------8-------3---------------|

VERSE 1
|-----------------------------------------------------------------|
|-----6----------------------------------6------------------------|
|-----------------------------------------------------------------|
|-----5--------t8t7t10t8t13t12-----------5------------------------|
|-5555-555-555-----------------------5555-555-555-t6t5t3t5t1t0----| 2X
|-5555-555-555-----------------------5555-555-555-----------------|
  .... ... ...                       .... ... ...
PART 2
|--------------------------|
|-----6--------------------|
|--------------------------|
|-----5--------------------|
|-5555-555-5555------------| 4X
|-5555-555-55558-5-3-55----|
  .... ... ....

Repeat the chord progression from the INTRO for the CHORUS

VERSE 2
|---------------------------------------------|
|---------------------------------------------|
|---------------------------------------------|
|---------------------------------------------|
|-----------------------3---------------------| 2X
|-5-355-55558-5-355-1111-00-00008-5-3-3333-3--|

|-----------------|
|-----------------|
|-----------------|
|-----------------|
|-----------------|
|-5-355-55558555--|

PART 2
|---------------------------|
|---------------------------|
|---------------------------|
|---------------------------|
|-5-355~-5-3-5-8-5-3-5-1~---| 2X
|-5-355~-5-3-5-8-5-3-5-1~---|

|------------------------------------|
|-----------------------------------|
|-----------------------------------|
|-----------------------------------|
|-----------------------------------| 2X
|-5-355-555-555-5-33-333-0000-08-7--|

Repeat INTRO
Repeat VERSE 1

|--------------------|
|--------------------|
|--------------------|
|--------------------|
|--------------------| 2X
|-03b00-012b00-08b0--|

|----------------------|
|----------------------|
|----------------------|
|----------------------|
|-0000-0-0-0000-0-0----|
|-0000-0-0-0000-0-0----|
  .... . . .... . .
|---------------------------|
|---------------------------|
|---------------------------|
|---------------------------|
|-0000-0-0-0000-0-0-0000-0--| 4X
|-0000-0-0-0000-0-0-0000-0--|
  .... . . .... . . .... .

Pleas comment/rate

************************************

| ~   vibrato
| .   Mute note
| b   Bend
| t   tremolo pick

************************************
Добавлено: 06.06.2012
Другие материалы по этой песне:

Страница создана 06.06.2012
http://primanota.ru/we-came-as-romans/to-move-on-is-to-grow-chords.htm
Привет, Гость.
Предлагаем пройти революционный курс по гитаре.
Подарок от PrimaNota.Ru, забирай!