PrimaNota.ru - самый крупный в мире бесплатный архив песенных текстов, аккордов, табулатур и нот


Washya - Taken Another Life - таба, видео

Регистрация Запомнить меня
Войти через:  Facebook Google Twitter Vk Yandex Mail.ru

Washya - Taken Another Life - таба, видео

Печатать
Просмотров: 40
------------------------------------------------------------------------------
                Taken Another Life - Washya
------------------------------------------------------------------------------
Tuning: Drop D (DADGBE)
Intro
E|---------------------|
B|---------------------|
G|---------------------|
D|---------------------|
A|-0-3-5-0-2-3-2-0-6-5-|
D|-0-3-5-0-2-3-2-0-6-5-|

Verses
E|---------------------------|
B|---------------------------|
G|---------------------------|
D|---------------------------|
A|-0-3-1-0-1-3-1-0-0-1-0-4-3-|
D|-0-3-1-0-1-3-1-0-0-1-0-4-3-|
PM * * * * * * * * * * *   

Chorus
E|--------------------------------------------------------------------|
B|--------------------------------------------------------------------|
G|--------------------------------------------------------------------|
D|-4444/555-----------------------------5\3-------------------333-----|
A|-2222/333-6-66666-3h4-1-000-1-0-1-000-3\1-0-3-5-6-5-3-0-6-5-111-1-3-|
D|----------6-66666-3h4-1-000-1-0-1-000-----0-3-5-6-5-3-0-6-5-----1-3-|
PM                        ***   *   ***     

Solo 
E|-----------------------------------------------------------------------|
B|-/15-15-15\13-13-13-13\12-12-12-12\10-10-10----------------------------|
G|--------------------------------------------/10-10-10-10\9999\7777\666-|
D|-----------------------------------------------------------------------|
A|-----------------------------------------------------------------------|
D|-----------------------------------------------------------------------|

E|------------------------------------------------|
B|------------------------------------------------|
G|---------------101010\999\888\666---------------|
D|------7---7-9---------------------444-----2---4-|
A|-/999---9-----------------------------2-4---4---|
D|------------------------------------------------|
Добавлено: 27.06.2013
Другие материалы по этой песне:
  • Аккорды и текст

Страница создана 27.06.2013
http://primanota.ru/washya/taken-another-life-chords.htm
Привет, Гость.
Предлагаем пройти революционный курс по гитаре.
Подарок от PrimaNota.Ru, забирай!