PrimaNota.ru - самый крупный в мире бесплатный архив песенных текстов, аккордов, табулатур и нот


Washya - Tattoo - таба, видео

Регистрация Запомнить меня
Войти через:  Facebook Google Twitter Vk Yandex Mail.ru

Washya - Tattoo - таба, видео

Печатать
Просмотров: 59
-----------------------------------------------------------------------------
                          Tattoo - Washya
-----------------------------------------------------------------------------
Tuning: Standard (ebgDAE)
Intro
e|-------------------------------------------------------16~----------------|
b|--------------------------------------9/12-------14/16--------------------|
g|--------------------------------8/10-------12/14--------------------------|
D|------------5------4------5-5/7-------------------------------5----4----5-|
A|---5-2------3------3------3-----------------------------------3----3----3-|
E|-0-3-0-0000---0000---0000----------------------------------00---00---00---|
PM *     ****   ****   ****                                  **   **   ** 

Verses
e|----------0------------------0-------------------2--------------------0-|
b|--------3---3--------------3---3--------------3----3----------------3---|
g|------0-------0----------0-------0----------0--------0------------0-----|
D|----5-----------5------5-----------5------5------------5--------5-------|
A|--2---------------2--2---------------2--2----------------2----4---------|
E|------------------------------------------------------------2-----------|

e|----------------------0---------------------0------------------|
b|-3------------------3---3-----------------3---3----------------|
g|---0--------------0-------0-------------5-------5--------------|
D|-----5----------5-----------5---------6-----------6------------|
A|-------4------4---------------4-----7---------------7---5555-2-|
E|---------2--2-------------------2/5-------------------5-3333-0-|

Chorus
e|-------------------------------------------------------------------------|
b|-------------------------------------------------------------------------|
g|---------------------------------------999999999-777777777---------------|
D|-55555555/77777777/888888888-333333333-999999999-777777777-7777-5555-222-|
A|-55555555/77777777/888888888-333333333-777777777-555555555-7777-5555-222-|
E|-33333333/55555555/666666666-111111111---------------------5555-3333-000-|

Guitar Solo (steady pace)
e|-----------------------------------------------------------------------|
b|------------------------------------------------------------------8-10-|
g|---------------------------------------7h10p9p7h10p9p7---7-7/9~-9------|
D|-5-5~-----3-55-3-7b---7-9-9-7-9br7-7h9-----------------9---------------|
A|------3-5-----------9--------------------------------------------------|
E|-----------------------------------------------------------------------|

e|------------------------------------------12h15p12-------------12h15p12-|
b|-10b-10h13p12p10h13p12p10h13p12p10h15~-14----------14p12----12----------|
g|---------------------------------------------------------14-------------|
D|------------------------------------------------------------------------|
A|------------------------------------------------------------------------|
E|------------------------------------------------------------------------|

e|-12h15p12-------12-12h15p12-------12-12h15p12-------12h15b-15b-15b-|
b|----------13h15-------------13h15-------------13h15----------------|
g|-------------------------------------------------------------------|
D|-------------------------------------------------------------------|
A|-------------------------------------------------------------------|
E|-------------------------------------------------------------------|
Добавлено: 05.10.2013
Другие материалы по этой песне:
  • Аккорды и текст

Страница создана 05.10.2013
http://primanota.ru/washya/tattoo-chords.htm
Привет, Гость.
Предлагаем пройти революционный курс по гитаре.
Подарок от PrimaNota.Ru, забирай!