PrimaNota.ru - самый крупный в мире бесплатный архив песенных текстов, аккордов, табулатур и нот


Washya - Stoned Drunk And Having A Ball - таба

Регистрация Запомнить меня
Войти через:  Facebook Google Twitter Vk Yandex Mail.ru

Washya - Stoned Drunk And Having A Ball - таба

Печатать
Просмотров: 43
-----------------------------------------------------------------------------
 Stoned, Drunk and Having A Ball - Washya
-----------------------------------------------------------------------------
Tuning: Drop D (EBGDAD)
Intro
E|--------------------------------------------------------------------|
B|--------------------------------------------------------------------|
G|--------------------------------------------------------------------|
D|-------------------------------------555/7--555/7-------------------|
A|-00000000-33333333-11111111-55555555-333/5--333/5-55555555-22222222-|
D|-00000000-33333333-11111111-55555555--------------55555555-22222222-|

Verses
E|-------------------------------------------------------------|
B|-------------------------------------------------------------|
G|-------------------------------------------------------------|
D|----------555/7----------333/5-------------------------------|
A|----------333/5----------111/3----------555/6----------111/3-|
D|-00000000-------00000000-------00000000-555/6-00000000-111/3-|
PM ********       ********       ********       ******** 

Chorus
E|-----------------------------------------------------------------------|
B|-----------------------------------------------------------------------|
G|-----------------------------------------------------------------------|
D|-777-77-777-777-7-77-7777----------------------------------------------|
A|-555-55-555-555-5-55-5555-555-55-555-555-5-55-5555-222-22-222-222-2-22-|
D|--------------------------555-55-555-555-5-55-5555-222-22-222-222-2-22-|

E|--------------------------------------------------------|
B|--------------------------------------------------------|
G|--------------------------------------------------------|
D|------555-55-555-555-5-55-5555--------------------------|
A|-2222-333-33-333-333-3-33-3333-333-33-333-333-3-33-3333-|
D|-2222--------------------------333-33-333-333-3-33-3333-|

Verses
E|-------------------------------------------------------------|
B|-------------------------------------------------------------|
G|-------------------------------------------------------------|
D|----------555/7----------333/5-------------------------------|
A|----------333/5----------111/3----------555/6----------111/3-|
D|-00000000-------00000000-------00000000-555/6-00000000-111/3-|
PM ********       ********       ********       ******** 
Добавлено: 11.09.2013
Другие материалы по этой песне:
  • Аккорды и текст

Страница создана 11.09.2013
http://primanota.ru/washya/stoned-drunk-and-having-a-ball-chords.htm
Привет, Гость.
Предлагаем пройти революционный курс по гитаре.
Подарок от PrimaNota.Ru, забирай!