PrimaNota.ru - самый крупный в мире бесплатный архив песенных текстов, аккордов, табулатур и нот


Washya - Strangled To Death - таба, видео

Регистрация Запомнить меня
Войти через:  Facebook Google Twitter Vk Yandex Mail.ru

Washya - Strangled To Death - таба, видео

Печатать
Просмотров: 50
-----------------------------------------------------------------------------
                         Strangled To Death - Washya
-----------------------------------------------------------------------------
Tuning: Drop D (EBGDAD)
Intro
E|-------0------------------------------------------------|
B|-------3------------------------------------------------|
G|-------2-------8\7-----------6--------------------------|
D|-------0-----------5/7-----7---7\6----------------------|
A|-3-3-0-0-3-3-0---------5-5---------4/6-4-4444-4-4-4-1/2-|
D|-3-3-0-0-3-3-0---------5---------------4-4444-4-4-4-1/2-|
PM                                       * **** * * *   

Main Riff/Chorus
E|----------------------------------------------------|
B|----------------------------------------------------|
G|----------------------------------------------------|
D|-----10---7-----10---5---8-----10---7-----8---5---7-|
A|-----8----5-----8----3---6-----8----5-----6---3---5-|
D|-000----0---000----0---0---000----0---000---0---0---|
PM ***    *   ***    *   *   ***    *   ***   *   * 

Verses
E|-------------------------------------------------|
B|-------------------------------------------------|
G|-------------------------------------------------|
D|-------------------------------------------------|
A|-----8---5-----8---3---6-----8---5-----6---3---5-|
D|-000---0---000---0---0---000---0---000---0---0---|
PM ***   *   ***   *   *   ***   *   ***   

Guitar Solo 
E|--------------------------------------------------------|
B|-----------------8--------------------------------------|
G|-9b-999999999b-9---9-7---7------------------------------|
D|-----------------------9---9-8-7---8-7-9----------------|
A|---------------------------------9---------8-7----------|
D|-----------------------------------------9-----9-8-7-5~-|

E|---------------------------------------------------------9-7-10~-|
B|------------------------------------------------8-7-8-10---------|
G|---------------------------------------8-7-8-10------------------|
D|-------------------------7-8-10-7-8-10---------------------------|
A|-------------5-6-8-5-6-8-----------------------------------------|
D|-3-5-6-3-5-6-----------------------------------------------------|

E|-10h13p10----10h13p10----10h13p10----10h13p10h13/15p13p12----13p12----|
B|----------12----------12----------12----------------------15-------15-|
G|----------------------------------------------------------------------|
D|----------------------------------------------------------------------|
A|----------------------------------------------------------------------|
D|----------------------------------------------------------------------|

E|----------------13p12p10----------------------15p13----13p12----15-13----|
B|-15p14p12h14h15----------12h14----------13-15-------15-------15-------15-|
G|-------------------------------14h15p12----------------------------------|
D|-------------------------------------------------------------------------|
A|-------------------------------------------------------------------------|
D|-------------------------------------------------------------------------|

E|-15-13----13-12----------12-13-15b-17b-18~-|
B|-------15-------15-13-12-------------------|
G|-------------------------------------------|
D|-------------------------------------------|
A|-------------------------------------------|
D|-------------------------------------------|
Добавлено: 13.06.2013
Другие материалы по этой песне:
  • Аккорды и текст

Страница создана 13.06.2013
http://primanota.ru/washya/strangled-to-death-chords.htm
Привет, Гость.
Предлагаем пройти революционный курс по гитаре.
Подарок от PrimaNota.Ru, забирай!