PrimaNota.ru - самый крупный в мире бесплатный архив песенных текстов, аккордов, табулатур и нот


Washya - Sprint To The Finish - таба, видео

Регистрация Запомнить меня
Войти через:  Facebook Google Twitter Vk Yandex Mail.ru

Washya - Sprint To The Finish - таба, видео

Печатать
Просмотров: 73
Уроки эстрадного вокала в Санкт-Петербурге
-------------------------------------------------------------------------------
             Sprint To The Finish - Washya
-------------------------------------------------------------------------------
Tuning: Standard (EBGDAE)
Intro
E|------------------------------------------|
B|------------------------------------------|
G|------------------------------------------|
D|-------------------------------5-3--------|
A|-----7-5-7-----7-5-7-----7-5-7-----5-3-55-|
E|-000-------000-------000------------------|
PM ***       ***       *** 

Intro part 2 
E|--------------------------------------------|
B|--------------------------------------------|
G|--------------------------------------------|
D|-----7-5-7-----7-5-7-----7-5-7-8-7-5-3-55-5-|
A|-----5-3-5-----5-3-5-----5-3-5-6-5-3-1-33-3-|
E|-000-------000-------000--------------------|
PM ***       ***       *** 
Verses
E|--------------------------------------------------------------------|
B|-----------------------------------------8-6------------------------|
G|---------------9-7-9-----9-7-9-----9-7-9-----7-5-7------------------|
D|--------------------------------------------------------------------|
A|-----7-5-7---------------------------------------------12-10-12-----|
E|-000-------000-------000-------000-----------------000----------000-|
PM ***       ***       ***       ***                 ***          *** 

E|------------------------------------------|
B|------------------------------------------|
G|------------------------------------------|
D|-----------------------10-8---------------|
A|-12-10-12-----12-10-12------10-8-10-10-10-|
E|----------000-----------------------------|
PM          *** 

Chorus
E|----------------------------------------------------------------|
B|----------------------------------------------------------------|
G|-10-10101010-10101010--7--7-7-77---7-77--7----------------------|
D|-10-10101010-10101010--7--7-7-77---7-77--7--3--3-3-33---3-33--3-|
A|-8--8-8-88---8-88--8---5--5-5-55---5-55--5--3--3-3-33---3-33--3-|
E|--------------------------------------------1--1-1-11---1-11--1-|
PM *      *    *  *  *      * *  *     **  *     * * **      *  * 

E|-----------------------------------------------------------------|
B|-----------------------------------------------------------------|
G|--------------------888-88-8-88-8-88\555-55-5-55-5-55------------|
D|-5--5-5-55---5-55-5-888-88-8-88-8-88\555-55-5-55-5-55-222-2-22-2-|
A|-5--5-5-55---5-55-5-666-66-6-66-6-66\333-33-3-33-3-33-222-2-22-2-|
E|-3--3-3-33---3-33-3-----------------------------------000-0-00-0-|
PM *      **     **   *      *  * *    *** *       *    *** * ** 
Добавлено: 29.09.2013
Другие материалы по этой песне:
  • Аккорды и текст

Страница создана 29.09.2013
http://primanota.ru/washya/sprint-to-the-finish-chords.htm
Привет, Гость.
Предлагаем пройти революционный курс по гитаре.
Подарок от PrimaNota.Ru, забирай!