PrimaNota.ru - самый крупный в мире бесплатный архив песенных текстов, аккордов, табулатур и нот


Washya - Starcrossed Lovers - таба, видео

Регистрация Запомнить меня
Войти через:  Facebook Google Twitter Vk Yandex Mail.ru

Washya - Starcrossed Lovers - таба, видео

Печатать
Просмотров: 47
-------------------------------------------------------------------------------
                 Starcrossed Lovers - Washya
-------------------------------------------------------------------------------
Tuning: Standard (EBGDAE)
Intro
E|-0-----0-----5/6-5/6-----------0-0-----------0-------------------------0-|
B|-0-----0-----5/6-5/6---------0---0-----------0---0---------------------0-|
G|-1-----0-----6/7-6/7-------0-----0---0-------1-----1-------------------0-|
D|-2-xxx-2-xxx-7/8-7/8-----2-------2-----2-----2-------2---------5-------2-|
A|-2-xxx-2-xxx-7/8-7/8---2---------2-------2---2---------2---------5-----2-|
E|-0-xxx-0-xxx-5/6-5/6-0-----------0-0-------0-0-0---------0h2h3-----3p2p0-|

Verses
E|-0000-0000-------------5555-6-------------0000-0000-----------------|
B|-0000-0000-0-----0-----5555-6-6-----------0000-0000-----------------|
G|-1111-0000-------------6666-7---------7---0000-1111-1p0-------------|
D|-2222-2222-----2---2---7777-8-----8-----8-2222-2222-------2-------5-|
A|-2222-2222---2-------2-7777-8---8---------2222-2222-----2---2---5---|
E|-0000-0000-------------5555-6-------6-----0000-0000-----------3-----|

Chorus
E|-------------------------------------------------|
B|-------------------------------------------------|
G|-11-------------77-55-11-------------------11-55-|
D|-22-22-77-88-22-77-55-22-22-55-77-88-55-22-22-55-|
A|-22-22-77-88-22-55-33-22-22-55-77-88-55-22-22-33-|
E|----00-55-66-00----------00-33-55-66-33-00-------|

Lead/Solo (just tapping, hammerons and pulloffs)
E|-------------------------------------------------12t17p15p12t17p15p12/18~-|
B|-3t8p5p3t8p5p3t8p5p3-x3---------------------------------------------------|
G|------------------------5t10p8p5t10p8p5t10p8p5-x3-------------------------|
D|--------------------------------------------------------------------------|
A|--------------------------------------------------------------------------|
E|--------------------------------------------------------------------------|


Добавлено: 29.09.2013
Другие материалы по этой песне:
  • Аккорды и текст

Страница создана 29.09.2013
http://primanota.ru/washya/starcrossed-lovers-chords.htm
Привет, Гость.
Предлагаем пройти революционный курс по гитаре.
Подарок от PrimaNota.Ru, забирай!