PrimaNota.ru - самый крупный в мире бесплатный архив песенных текстов, аккордов, табулатур и нот


Washya - Shattered Nerves - таба, видео

Регистрация Запомнить меня
Войти через:  Facebook Google Twitter Vk Yandex Mail.ru

Washya - Shattered Nerves - таба, видео

Печатать
Просмотров: 78
Уроки эстрадного вокала в Санкт-Петербурге
-----------------------------------------------------------------------------
              Shattered Nerves - Washya
-----------------------------------------------------------------------------
Tuning: Standard (ebgDAE)
Intro
e|---------------------------------------------------|
b|---------------------------------------------------|
g|---------------------------------------------------|
D|---------------------------------------------------|
A|-444444444444444-2222222222222222------------------|
E|----------------------------------111111111111//xx-|
PM *************** **************** ************

Main Riff
e|---------------------------|
b|---------------------------|
g|---------------------------|
D|---------------------999-7-|
A|-4/7-5/8-4/7-3/6-5/8-777-5-|
E|-2/5-3/6-2/5-1/4-3/6-------|

Verses
e|------------------------------------------|
b|------------------------------------------|
g|------------------------------------------|
D|------------------------------------------|
A|-3333-3-2-2-33332-33332-33332323333233332-|
E|-1111-1-0-0-11110-11110-11110101111011110-|
PM **** * * * ***** ***** ***************** 

Guitar Solo
e|---------------------------12----12----13~-13p10----10h13p10----10h13p10-|
b|--------------8---8p7h8/10----10----10-----------13----------13----------|
g|---4---4-6b-6---6--------------------------------------------------------|
D|-2---2-------------------------------------------------------------------|
A|-------------------------------------------------------------------------|
E|-------------------------------------------------------------------------|

e|-141414141414141414141414p10----151515151515151515p10-------14-15-14-12--|
b|-----------------------------13-----------------------13-13--------------|
g|-------------------------------------------------------------------------|
D|-------------------------------------------------------------------------|
A|-------------------------------------------------------------------------|
E|-------------------------------------------------------------------------|

e|--------12----------------------------------------------------------------|
b|--15-14----15-14-12-------13-12-------------------------------------------|
g|--------------------14-15-------15-14-------------------------------------|
D|--------------------------------------12-14-15----------------------------|
A|-----------------------------------------------13-12-15-13-12-------13-12-|
E|--------------------------------------------------------------14-15-------|

e|-//12h17p15p12h17p15p12h17p15p12t19p15p12t19p15p12-15b-15b-15b~-|
b|----------------------------------------------------------------|
g|----------------------------------------------------------------|
D|----------------------------------------------------------------|
A|----------------------------------------------------------------|
E|----------------------------------------------------------------|
Добавлено: 06.11.2013
Другие материалы по этой песне:
  • Аккорды и текст

Страница создана 06.11.2013
http://primanota.ru/washya/shattered-nerves-chords.htm
Привет, Гость.
Предлагаем пройти революционный курс по гитаре.
Подарок от PrimaNota.Ru, забирай!