PrimaNota.ru - самый крупный в мире бесплатный архив песенных текстов, аккордов, табулатур и нот


Washya - Shred - таба, видео

Регистрация Запомнить меня
Войти через:  Facebook Google Twitter Vk Yandex Mail.ru

Washya - Shred - таба, видео

Печатать
Просмотров: 52
-------------------------------------------------------------------------------
                              Shred - Washya
-------------------------------------------------------------------------------
Tuning: Standard (EBGDAE)
Intro
E|----------------------------|
B|----------------------------|
G|----------------------------|
D|-----2-----3-------9vb~~~~--|
A|-2-2-0-2-2-1-2-2-3----------|
E|-0-0---0-0---0-0-1----------|

Part 2
E|--------------------------------------------------------------------------|
B|--------------------------------------------------------------------------|
G|--------------3-----------------------------------------------------------|
D|----------6-5---6-5-3------3----3----3~~---------3------------------------|
A|----------------------5-66---55---33---------6-5---6-5-3----3----3----3~~-|
E|-xx//-0-2--------------------------------0-2-------------66---55---33-----|
PM                        ** * ** * **                     ** * ** * ** 

Chorus
E|-------------------------------------------|
B|-------------------------------------------|
G|-------------------------------------------|
D|-------------------------------------------|
A|-5/8-7/8-8/10-4/5-5/8-7/8-10\9\8-6/7-3/5-2-|
E|-3/6-5/6-6/8--2/3-3/6-5/6-8-\7\6-4/5-1/3-0-|

Interlude
E|----------------------------------------------------------|
B|----------------------------------------------------------|
G|----------------------------------------------------------|
D|----6-----------------------------------------------------|
A|-88-4-8-7-5----5----3----3----5\4-7-77---77---55---55---2-|
E|-66---6-5---77---77---55---55-3\2-5----5----5----3----3-0-|
PM          * ** * ** * ** * **       ** * ** * ** * ** * 
Добавлено: 02.10.2013
Другие материалы по этой песне:
  • Аккорды и текст

Страница создана 02.10.2013
http://primanota.ru/washya/shred-chords.htm
Привет, Гость.
Предлагаем пройти революционный курс по гитаре.
Подарок от PrimaNota.Ru, забирай!