PrimaNota.ru - самый крупный в мире бесплатный архив песенных текстов, аккордов, табулатур и нот


Washya - Shanked - таба, видео

Регистрация Запомнить меня
Войти через:  Facebook Google Twitter Vk Yandex Mail.ru

Washya - Shanked - таба, видео

Печатать
Просмотров: 54
----------------------------------------------------------------------------
                        Shanked - Washya
----------------------------------------------------------------------------
Tuning: Drop D (DADGBE)
Intro
E|---------------------------------------------------------|
B|---------------------------------------------------------|
G|---------------------------------5---5---5---3---2-------|
D|-----------------------------------8---7---5---5---3p2p0-|
A|----3---3---3---1---1------------------------------------|
E|-00---6---5---3---3---2-3p2p0-22-------------------------|
PM ** * * * * * * * * * *       **  

Main Riff/Chorus
E|--------------------------------------|
B|--------------------------------------|
G|--------------------------------------|
D|-----8\7-----3/5---------77\6-----2-3-|
A|-3/4-6\5-5/7-1/3-8\7-5/7-55\4-3/5-0-1-|
E|-1/2-----3/5-----6\5-3/5------1/3-----|

Verses
E|-------------------------------------------------------------------------|
B|-------------------------------------------------------------------------|
G|--------------------------------------55---5---5---5---5-----------------|
D|-----------------------------------------8---7---5---8---7-776-776-776-4-|
A|-33---3---3---3---3------------------------------------------------------|
E|----6---5---3---6---5-554-554-554-2-0------------------------------------|
PM    *   *   *   *   * *** *** *** * *    *   *   *   *   * *** *** *** * 
Добавлено: 19.07.2013
Другие материалы по этой песне:
  • Аккорды и текст

Страница создана 19.07.2013
http://primanota.ru/washya/shanked-chords.htm
Привет, Гость.
Предлагаем пройти революционный курс по гитаре.
Подарок от PrimaNota.Ru, забирай!