PrimaNota.ru - самый крупный в мире бесплатный архив песенных текстов, аккордов, табулатур и нот


Washya - Rockshow - таба, видео

Регистрация Запомнить меня
Войти через:  Facebook Google Twitter Vk Yandex Mail.ru

Washya - Rockshow - таба, видео

Печатать
Просмотров: 54
------------------------------------------------------------------------------
         Rockshow - Grinspoon 
------------------------------------------------------------------------------
Tuning: Drop D (DADGBE)
Intro
E|----------------------------------------------------------------5------|
B|------------------------------------------------------------------5----|
G|-2h4-444-77---------------77--------------77----------------77------5--|
D|-2h4-444-77---------------77--------------77----------------77---------|
A|-0h2-222-55-7-777-0-222-2-55------7h9-999-55-7-777-0-2222-2-55---------|
D|------------7-777-0-222-2----//xx-7h9-999----7-777-0-2222-2------------|


Verses
E|---------------------------------|
B|---------------------------------|
G|-7-7-------7-7-----7-7-------7-7-|
D|---------------------------------|
A|-----7-7-9-----7-9-----9-7-9-----|
D|---------------------------------|

Next Part ("you don't own me")
E|----------|
B|----------|
G|-44444444-|
D|-44444444-|
A|-22222222-|
D|----------|
PM ******** 

Part 2 ("You can't tell that")
E|----------------------------|
B|----------------------------|
G|----------------------------|
D|----------------------------|
A|-7h9-999-00h2h3p2p0h2p0h2p0-|
D|-7h9-999-00h2h3p2p0h2p0h2p0-|


E|----------|
B|----------|
G|-44444444-|
D|-44444444-|
A|-22222222-|
D|----------|
PM ******** 

Chorus
E|------------------------------------------------------------|
B|------------------------------------------------------------|
G|---------77----------------77---------77----------------77--|
D|---------77----------------77---------77----------------77--|
A|-7h9-999-55-7-777-0-2222-2-55-7h9-999-55-7-777-0-2222-2-55--|
D|-7h9-999----7-777-0-2222-2----7h9-999----7-777-0-2222-2-----|

Lead section 
E|------------------------------------------------|
B|------------------------------------------------|
G|------------------------------------------------|
D|-----77---7---7-9-7-----7-----7---9-7h9---7h9---|
A|-7h9----9---9-------9-9---9-7---9-------9-----7-|
D|------------------------------------------------|

Verses
E|---------------------------------|
B|---------------------------------|
G|-7-7-------7-7-----7-7-------7-7-|
D|---------------------------------|
A|-----7-7-9-----7-9-----9-7-9-----|
D|---------------------------------|

E|----------|
B|----------|
G|-44444444-|
D|-44444444-|
A|-22222222-|
D|----------|
PM ******** 

E|----------------------------|
B|----------------------------|
G|----------------------------|
D|----------------------------|
A|-7h9-999-00h2h3p2p0h2p0h2p0-|
D|-7h9-999-00h2h3p2p0h2p0h2p0-|

E|----------|
B|----------|
G|-44444444-|
D|-44444444-|
A|-22222222-|
D|----------|
PM ******** 

Chorus
E|------------------------------------------------------------|
B|------------------------------------------------------------|
G|---------77----------------77---------77----------------77--|
D|---------77----------------77---------77----------------77--|
A|-7h9-999-55-7-777-0-2222-2-55-7h9-999-55-7-777-0-2222-2-55--|
D|-7h9-999----7-777-0-2222-2----7h9-999----7-777-0-2222-2-----|

Guitar Solo 
E|------------------------------------------------------------------------|
B|------------------------------------------------------------------------|
G|-9-7-------7-9b~-/4h5h7-6h7h9-9h10h12-9h10h12b-10-------12b-10----10----|
D|-----9-7-9----------------------------------------12-12--------12----12-|
A|------------------------------------------------------------------------|
D|------------------------------------------------------------------------|

E|--------------------------------------------------------------------|
B|--------------------------------------------------------------------|
G|-------10h11p10----------11p10----------12b~-12-10h12-12-------10~~-|
D|-10h12----------12p10h12-------12p10h12------------------10h12------|
A|--------------------------------------------------------------------|
D|--------------------------------------------------------------------|

E|----------|
B|----------|
G|-44444444-|
D|-44444444-|
A|-22222222-|
D|----------|
PM ******** 

E|----------------------------|
B|----------------------------|
G|----------------------------|
D|----------------------------|
A|-7h9-999-00h2h3p2p0h2p0h2p0-|
D|-7h9-999-00h2h3p2p0h2p0h2p0-|

Chorus
E|------------------------------------------------------------|
B|------------------------------------------------------------|
G|---------77----------------77---------77----------------77--|
D|---------77----------------77---------77----------------77--|
A|-7h9-999-55-7-777-0-2222-2-55-7h9-999-55-7-777-0-2222-2-55--|
D|-7h9-999----7-777-0-2222-2----7h9-999----7-777-0-2222-2-----|
Добавлено: 25.06.2013
Другие материалы по этой песне:
  • Аккорды и текст

Страница создана 25.06.2013
http://primanota.ru/washya/rockshow-chords.htm
Привет, Гость.
Предлагаем пройти революционный курс по гитаре.
Подарок от PrimaNota.Ru, забирай!