PrimaNota.ru - самый крупный в мире бесплатный архив песенных текстов, аккордов, табулатур и нот


Washya - Roped And Gagged - таба

Регистрация Запомнить меня
Войти через:  Facebook Google Twitter Vk Yandex Mail.ru

Washya - Roped And Gagged - таба

Печатать
Просмотров: 70
Уроки эстрадного вокала в Санкт-Петербурге
-----------------------------------------------------------------------------
                   Roped and Gagged - Washya
-----------------------------------------------------------------------------
Tuning: Drop C (DAFCGC)
Intro
D|--------------------------|
A|--------------------------|
F|--------------------------|
C|-555-5----------------777-|
G|-333-3-555-5-2222/33/-555-|
C|-------555-5-2222/33/-----|

Verses
D|------------------------------------------------------------------------|
A|---------/7-10---------------------/5-8---------------------------------|
F|---------------9-8-6--------------------7-6-4---------------------------|
C|---------------------7-5-4--------------------5-4-2---------------------|
G|-00-0-00-------------------0000-00------------------0000-00-333111/6666-|
C|-00-0-00-------------------0000-00------------------0000-00-333111/6666-|
PM ** * **                   **** **                  **** **

Guitar Solo
D|-----------------------------------------------------------------------15-|
A|-----------------------------------------------------10h12h13-10h12h13----|
F|---------------------------------------8h9h11-8h9h11----------------------|
C|-------------------------7h8h10-7h8h10------------------------------------|
G|-------------5h6h8-5h6h8--------------------------------------------------|
C|-3h5h6-3h5h6--------------------------------------------------------------|
PM ***** ***** ***** ***** 

D|-/12h15p14p12h15p14p12h15p14p12/14h17p16p14h17p16p14h17p16p14-----14-----|
A|------------------------------------------------------------------14-----|
F|--------------------------------------------------------------16b----16b-|
C|-------------------------------------------------------------------------|
G|-------------------------------------------------------------------------|
C|-------------------------------------------------------------------------|

D|-14-----14-----17-14----------------14h17p14h17p14----------18b-18b-18b--|
A|-14-----14-/14-------17-14----14-17----------------15h17p15--------------|
F|----16b--------------------15--------------------------------------------|
C|-------------------------------------------------------------------------|
G|-------------------------------------------------------------------------|
C|-------------------------------------------------------------------------|

Intro
D|--------------------------|
A|--------------------------|
F|--------------------------|
C|-555-5----------------777-|
G|-333-3-555-5-2222/33/-555-|
C|-------555-5-2222/33/-----|

Verses
D|------------------------------------------------------------------------|
A|---------/7-10---------------------/5-8---------------------------------|
F|---------------9-8-6--------------------7-6-4---------------------------|
C|---------------------7-5-4--------------------5-4-2---------------------|
G|-00-0-00-------------------0000-00------------------0000-00-333111/6666-|
C|-00-0-00-------------------0000-00------------------0000-00-333111/6666-|
PM ** * **                   **** **                  **** **
Добавлено: 14.11.2013
Другие материалы по этой песне:
  • Аккорды и текст

Страница создана 14.11.2013
http://primanota.ru/washya/roped-and-gagged-chords.htm
Привет, Гость.
Предлагаем пройти революционный курс по гитаре.
Подарок от PrimaNota.Ru, забирай!