PrimaNota.ru - самый крупный в мире бесплатный архив песенных текстов, аккордов, табулатур и нот


Washya - Regular Infection - таба, видео

Регистрация Запомнить меня
Войти через:  Facebook Google Twitter Vk Yandex Mail.ru

Washya - Regular Infection - таба, видео

Печатать
Просмотров: 54
-----------------------------------------------------------------------------
                     Regular Infection - Washya
-----------------------------------------------------------------------------
Tuning: Standard (EBGDAE)
Intro
E|----------------------------|-----------|
B|----------------------------|-----------|
G|----------------------------|-/9v~------|
D|----------------------------|-----------|
A|-22222222222222222222222222-|-----------|
E|-00000000000000000000000000-|------12\\-|
PM ************************** 

Main Riff Chorus
E|-----------------------------------------------------------|-------------|
B|-----------------------------------------------------------|-------------|
G|-----------------------------------------------------------|-------------|
D|----------------7-5-3---3-------------------8-6-4---4------|-444-333-222-|
A|------3h5---3h5-------5-----------5h7---5h7-------6--------|-222-111-000-|
E|-0-00-----0---------------55-0-00-----0---------------66v~-|-------------|
PM * **     *                  * **     *                           

Verses
E|-------------------------------------------------------|
B|-----------5p4---------5p4---------5p4-----------------|
G|---2-4---2-----2-4---2-----2-4---2-----6666-8888-------|
D|-------4-----------4-----------4-------6666-8888-4-4/6-|
A|---------------------------------------4444-6666-4-4/6-|
E|-0-----------------------------------------------2-2/4-|
PM * 

Guitar Solo (short and sweet)
E|-----15----------------15----------------15----------------17b~-|
B|--------14-12----12-14----14-12----12-14----14-12----12-14------|
G|-12b----------14----------------14----------------14------------|
D|----------------------------------------------------------------|
A|----------------------------------------------------------------|
E|----------------------------------------------------------------|

E|-15h17-17p15p14h15p14p12h14p12----12----------------------------|
B|-------------------------------14----14p12----------13p12-------|
G|-------------------------------------------14p13h15-------14h15-|
D|----------------------------------------------------------------|
A|----------------------------------------------------------------|
E|----------------------------------------------------------------|

E|----13p12----------------------15p13p12h17p15p13h17p15p13h17p15p13~~-|
B|-14-------14p13p11-------10h12---------------------------------------|
G|-------------------13p12---------------------------------------------|
D|---------------------------------------------------------------------|
A|---------------------------------------------------------------------|
E|---------------------------------------------------------------------|

Outro
E|------------------------|
B|------------------------|
G|------------------------|
D|-7-77-6-66-2~--33-33-2~-|
A|-7-77-6-66-2~--33-33-2~-|
E|-5-55-4-44-0~--11-11-0~-|
Добавлено: 01.07.2013
Другие материалы по этой песне:
  • Аккорды и текст

Страница создана 01.07.2013
http://primanota.ru/washya/regular-infection-chords.htm
Привет, Гость.
Предлагаем пройти революционный курс по гитаре.
Подарок от PrimaNota.Ru, забирай!