PrimaNota.ru - самый крупный в мире бесплатный архив песенных текстов, аккордов, табулатур и нот


Washya - Ribena - таба

Регистрация Запомнить меня
Войти через:  Facebook Google Twitter Vk Yandex Mail.ru

Washya - Ribena - таба

Печатать
Просмотров: 57
------------------------------------------------------------------------------
        Ribena - Washya
------------------------------------------------------------------------------
Tuning: Standard (EBGDAE)
Intro
E|----------------------------------------------------------------|
B|----------------------------------------------------------------|
G|----------------------------------------------------------------|
D|----------------------------------------------------------------|
A|-44444444444444444-3333333333333------------------------5-4-3-2-|
E|---------------------------------22222222222-3333333333-3-2-1-0-|
PM ***************** ************* *********** ********** 

Main Riff/Chorus
E|--------------------------------------|
B|--------------------------------------|
G|--------------------------------------|
D|---------7-6-5-------------10-9-8-----|
A|-2-3-4-5-5-4-3-3-2-5-6-7-8-8--7-6-8-5-|
E|-0-1-2-3-------1-0-3-4-5-6--------6-3-|

Verses
E|--------------------------------------------------------------------|
B|--------------------------------------------------------------------|
G|--------------------------------------------------------------------|
D|--------------------------------------------------------------------|
A|--------------44444444444444-33333333333----------------5-7-5-7-5-4-|
E|-222222222222----------------------------11111222223333-3-5-3-5-3-2-|
PM                                                        * * * * * *  

interlude (Play fast)
E|------------------------------------------------------------------|
B|------------------------------------------------------------------|
G|------------------------------------------------------------------|
D|------------------------------------------------------------------|
A|------4----5----3---------4----5----4------3----4----5------555\4-|
E|-0000-2-00-3-00-1-00-0000-2-00-3-00-2-0000-1-00-2-00-3-0000-333\2-|
PM ****   **   **   ** ****   **   **   ****   **   **   **** 
Добавлено: 21.06.2013
Другие материалы по этой песне:
  • Аккорды и текст

Страница создана 21.06.2013
http://primanota.ru/washya/ribena-chords.htm
Привет, Гость.
Предлагаем пройти революционный курс по гитаре.
Подарок от PrimaNota.Ru, забирай!