PrimaNota.ru - самый крупный в мире бесплатный архив песенных текстов, аккордов, табулатур и нот


Washya - Receptacle - таба, видео

Регистрация Запомнить меня
Войти через:  Facebook Google Twitter Vk Yandex Mail.ru

Washya - Receptacle - таба, видео

Печатать
Просмотров: 51
------------------------------------------------------------------------------
                   Receptacle - Washya
------------------------------------------------------------------------------
Tuning: Drop D (EBGDAD)
Intro
E|-----------------------------------------------------------------|
B|-----------------------------------------------------------------|
G|-----------------------------------------------------------------|
D|-----------------55-5-5-5-55-55---------------77-7-7-7-77-77-----|
A|-222222222222222-33-3-3-3-33-33-2222222222222-55-5-5-5-55-55-----|
D|-222222222222222----------------2222222222222----------------\\x-|
PM ***************                ************* 

Verses
E|---------------------------------------------------------------------|
B|---------------------------------------------------------------------|
G|---------------------------------------------------------------------|
D|------5----4----2------------------5----4----7-----------------------|
A|-----------------------------------------------77777777-10-8-7-5-3-0-|
D|-2222---22---22---222222222---2222---22---22---77777777-10-8-7-5-3-0-|
PM ****   **   **   *********   ****   **   **   ******** 

Chorus
E|---------------------------------------------------------------------|
B|---------------------------------------------------------------------|
G|---------------------------------------------------------------------|
D|-------------------3-33-333-------------------7-77-777---------------|
A|-0-2-3-0-5-3-0-1-3-1-11-111-5555-5555-222-222-5-55-555-77777-5-3-2-0-|
D|-0-2-3-0-5-3-0-1-3----------5555-5555-222-222----------77777-5-3-2-0-|
Добавлено: 18.11.2013
Другие материалы по этой песне:
  • Аккорды и текст

Страница создана 18.11.2013
http://primanota.ru/washya/receptacle-chords.htm
Привет, Гость.
Предлагаем пройти революционный курс по гитаре.
Подарок от PrimaNota.Ru, забирай!