PrimaNota.ru - самый крупный в мире бесплатный архив песенных текстов, аккордов, табулатур и нот


Washya - Planets Of Orion - таба, видео

Регистрация Запомнить меня
Войти через:  Facebook Google Twitter Vk Yandex Mail.ru

Washya - Planets Of Orion - таба, видео

Печатать
Просмотров: 49
-----------------------------------------------------------------------------
                     Planets Of Orion - Washya
-----------------------------------------------------------------------------
Tuning: Standard (ebgDAE)
Intro
e|-----------------------------------------------11~-|
b|-----------------------------------------6-7-9-----|
g|---------------------------7---5-6-8-6-5-----------|
D|-----------------5---5-6-7---7---------------------|
A|-------5---3-4-5---5----------------------------22-|
E|-3-4-5---5------------------------------------\-00-|
PM * * * * * * * * * * * * * * * * * * * * * * * 

Verses
e|----------------------------------|
b|----------------------------------|
g|----------------------------------|
D|-----------0----------------0-----|
A|-2-5-0h1h2-----2--2-5-0h1h2-----2-|
E|-0-3---------3-0--0-3---------3-0-|
pm             *                * 

Chorus
e|------------------------------------------------------------------------|
b|------------------------------------------------------------------------|
g|----------------------------------------0H3~-0H3~-----------------------|
D|----------------------------------------0H1~-0H1~-----------------------|
A|-5-55-55-55-5/6-66-66-66-6\3-33-33-33-3-----------2-22-22-22-2-3-33-3-2-|
E|-3-33-33-33-3/4-44-44-44-4\1-11-11-11-1-----------0-00-00-00-0-1-11-1-0-|
G

Guitar Solo 
e|-----------------------------------------------------------------------|
b|------------------------------------------------------------8p7-10p8p7-|
g|----------------------------------7-9b---7---7-9---7---7-9b------------|
D|---------7h10p9p7h10p9p7h10p9p7-9------7---9-----7---9-----------------|
A|-7-9-7-9---------------------------------------------------------------|
E|-----------------------------------------------------------------------|

e|------------10p8p7------------11b-11b-11p9h13b-13bp11h15b-15b-|
b|-7h8h10p8p7--------9-------7~---------------------------------|
g|---------------------8p7-9------------------------------------|
D|--------------------------------------------------------------|
A|--------------------------------------------------------------|
E|--------------------------------------------------------------|


e|--------------------------------9p8------9-------------9p8/12-13p12----12-|
b|---8p7-----8-----------8p7h8/10-----9h10---8h10---8h10--------------14----|
g|-9-----8h9---7h9---7h9--------------------------9-------------------------|
D|-----------------8--------------------------------------------------------|
A|--------------------------------------------------------------------------|
E|--------------------------------------------------------------------------|

e|-15b-15b-15p12----12----------------12h15p12----------------12h15p12-|
b|---------------15----15p12----12h15----------15p12----12h15----------|
g|---------------------------14----------------------14----------------|
D|---------------------------------------------------------------------|
A|---------------------------------------------------------------------|
E|---------------------------------------------------------------------|

e|----------------12h15p12----------------12h15p12----------------12h15p12-|
b|-15p12----12h15----------15p12----12h15----------15p12----12h15----------|
g|-------14----------------------14----------------------14----------------|
D|-------------------------------------------------------------------------|
A|-------------------------------------------------------------------------|
E|-------------------------------------------------------------------------|

e|-12h13h16-13h16p13----------------13h16p13----------------13h16p13-|
b|-------------------16p13----13h16----------16p13----13h16----------|
g|-------------------------15----------------------15----------------|
D|-------------------------------------------------------------------|
A|-------------------------------------------------------------------|
E|-------------------------------------------------------------------|

e|----------------13h16p13----------------------17p15h17h18p17h18-21~-21~-|
b|-16p13----13h16----------16p13-------15p14h15---------------------------|
g|-------15----------------------15h16------------------------------------|
D|------------------------------------------------------------------------|
A|------------------------------------------------------------------------|
E|------------------------------------------------------------------------|
Добавлено: 06.07.2013
Другие материалы по этой песне:
  • Аккорды и текст

Страница создана 06.07.2013
http://primanota.ru/washya/planets-of-orion-chords.htm
Привет, Гость.
Предлагаем пройти революционный курс по гитаре.
Подарок от PrimaNota.Ru, забирай!