PrimaNota.ru - самый крупный в мире бесплатный архив песенных текстов, аккордов, табулатур и нот


Washya - Power Core - таба, видео

Регистрация Запомнить меня
Войти через:  Facebook Google Twitter Vk Yandex Mail.ru

Washya - Power Core - таба, видео

Печатать
Просмотров: 56
Уроки эстрадного вокала в Санкт-Петербурге
------------------------------------------------------------------------------
           Power Core - Washya
------------------------------------------------------------------------------
Tuning: Standard (EBGDAE)
Intro
E|-------------------------------------------------------|
B|-------------------------------------------------------|
G|-------------------------------------------------------|
D|-----7-----10-9------8\7-11\10-13\12-------------------|
A|-----5-----8--7------6\5-9-\8--11\10------10-9-7-9-7-5-|
E|-000---000------0000-----------------0000-8--7-5-7-5-3-|
PM ***   ***      ****                 **** 

Main Riff
E|-------------------------------------------------------|
B|-------------------------------------------------------|
G|-------------------------------------------------------|
D|----------------------------3p2p0-5/8------5/7\8/7\5/7-|
A|-----------3p2p0------3p2p0-------3/6------3/5\6/5\3/5-|
E|-//xx-0000-------0000-----------------0000-------------|
PM      ****       ****                 **** 

Verses 
E|------------------------------------------------------------------|
B|------------------------------------------------------------------|
G|------------------------------------------------------------------|
D|------------------------------------------------------------------|
A|----------7~---------7h8p7~---------4~---------4-4h5p4~-3-5-6-5-3-|
E|-00000000----0000000--------0000000----0000000----------1-3-4-3-1-|
PM ********    *******        *******    *******          * * * * * 
Добавлено: 13.11.2013
Другие материалы по этой песне:
  • Аккорды и текст

Страница создана 13.11.2013
http://primanota.ru/washya/power-core-chords.htm
Привет, Гость.
Предлагаем пройти революционный курс по гитаре.
Подарок от PrimaNota.Ru, забирай!