PrimaNota.ru - самый крупный в мире бесплатный архив песенных текстов, аккордов, табулатур и нот


Washya - Pieces Of Broken Memories - таба, видео

Регистрация Запомнить меня
Войти через:  Facebook Google Twitter Vk Yandex Mail.ru

Washya - Pieces Of Broken Memories - таба, видео

Печатать
Просмотров: 92
-------------------------------------------------------------------------------
                   Pieces Of Broken Memories - Washya   
-------------------------------------------------------------------------------
Tuning: Standard (EBGDAE)
Intro
E|----------------------------------------------------|
B|----------------------------------------------------|
G|----------------------------------------------------|
D|----------------------------------------------------|
A|---10b----10-----------10b----10---12p11p10h11p10\\-|
E|-0-----00----0-12p10-0-----00----0------------------|
PM *     **    * ***** *     **    * 

Verses
E|--------------------------------------------|
B|--------------------------------------------|
G|--------------------------------------------|
D|---10----10---10-8--------8---8-6-----------|
A|--------------------------------------------|
E|-8----88----8------6-8-66---6-----7-6-4h6p4-|
PM *    **    *      * * **   *     * * ***** 

Chorus
E|--------------------------------------------------------------------|
B|--------------------------------------------------------------------|
G|--------------------------------------------------------------------|
D|---9----9---9-7--------7-------77------5--------5---5p4p2p0---------|
A|--------------------------------------------5---------------2b~-345-|
E|-7---77---7-----9-7\55---5-6-5----5-3----33---3---3-------------123-|
PM *   **   *     * * **   * * *    * *    **   *   *    
Добавлено: 25.07.2013
Другие материалы по этой песне:
  • Аккорды и текст

Страница создана 25.07.2013
http://primanota.ru/washya/pieces-of-broken-memories-chords.htm
Привет, Гость.
Предлагаем пройти революционный курс по гитаре.
Подарок от PrimaNota.Ru, забирай!