PrimaNota.ru - самый крупный в мире бесплатный архив песенных текстов, аккордов, табулатур и нот


Washya - Past Differences - таба, видео

Регистрация Запомнить меня
Войти через:  Facebook Google Twitter Vk Yandex Mail.ru

Washya - Past Differences - таба, видео

Печатать
Просмотров: 46
-------------------------------------------------------------------------------
                       Past Differences - Washya
-------------------------------------------------------------------------------
Tuning: Standard (EBGDAE)
Intro
E|---------------------------------------------|
B|---------------------------------------------|
G|---------------------------------------------|
D|---------------------------------------------|
A|-5h7---5h7---5h7---5h7---5h7p5h7p5-3h5p3h5p3-|
E|-----0-----0-----0-----0---------------------|x4
PM     *     *     *     * 

Verses
E|-------------------------------------------|
B|-------------------------------------------|
G|-------------------------------------------|
D|-----------------------------5h7h8p7p5-----|
A|-5h7---5h7---5h7---5h7---5h7-----------3h5-|
E|-----0-----0-----0-----0-------------------|
PM     *     *     *     * 

Chorus
E|---------------------------------------|
B|---------------------------------------|
G|---------------------------------------|
D|-7-777-7777-77-77-5-555-5555-55-5-55---|
A|-5-555-5555-55-55-3-333-3333-33-3-33-2-|
E|-------------------------------------0-|

Interlude
E|---------------------------------------------|
B|---------------------------------------------|
G|---------------------------------------------|
D|-------5-------3-------7-------9-------------|
A|-----3-3-----1-1-----5-5-----7-7-----------5-|
E|-3h5-----1h3-----5h7-----7h9-----4h5h7p5p4-3-|
PM *** *   *** *   *** *   *** *   ********* 

Chorus
E|---------------------------------------|
B|---------------------------------------|
G|---------------------------------------|
D|-7-777-7777-77-77-5-555-5555-55-5-55---|
A|-5-555-5555-55-55-3-333-3333-33-3-33-2-|
E|-------------------------------------0-|

Tuning: Standard (EBGDAE)
Intro
E|---------------------------------------------|
B|---------------------------------------------|
G|---------------------------------------------|
D|---------------------------------------------|
A|-5h7---5h7---5h7---5h7---5h7p5h7p5-3h5p3h5p3-|
E|-----0-----0-----0-----0---------------------|x4
PM     *     *     *     * 

Verses
E|-------------------------------------------|
B|-------------------------------------------|
G|-------------------------------------------|
D|-----------------------------5h7h8p7p5-----|
A|-5h7---5h7---5h7---5h7---5h7-----------3h5-|
E|-----0-----0-----0-----0-------------------|
PM     *     *     *     * 
Добавлено: 01.07.2013
Другие материалы по этой песне:
  • Аккорды и текст

Страница создана 01.07.2013
http://primanota.ru/washya/past-differences-chords.htm
Привет, Гость.
Предлагаем пройти революционный курс по гитаре.
Подарок от PrimaNota.Ru, забирай!