PrimaNota.ru - самый крупный в мире бесплатный архив песенных текстов, аккордов, табулатур и нот


Washya - Peaceful Wars - таба, видео

Регистрация Запомнить меня
Войти через:  Facebook Google Twitter Vk Yandex Mail.ru

Washya - Peaceful Wars - таба, видео

Печатать
Просмотров: 61
Уроки эстрадного вокала в Санкт-Петербурге
-----------------------------------------------------------------------------
                        Peaceful Wars - Washya
-----------------------------------------------------------------------------
Tuning: Standard (EBGDAE)
Intro (Play Fast)
E|-------------------------------------|
B|-------------------------------------|
G|-------------------------------------|
D|-------------------------------------|
A|-5-2-4-5-4-2-5-2-4-5-4-2-5-2-4-5-4-2-|
E|-3-0-2-3-2-0-3-0-2-3-2-0-3-0-2-3-2-0-|x3
PM * * * * * * * * * * * * * * * * * * 

Part 2
E|-------------------------------------------|
B|-------------------------------------------|
G|-------------------------------------------|
D|-----------------------4-----------4-------|
A|-4---5---7---4---454---2---5---7---2---454-|
E|-2-0-3-0-5-0-2-0-232-0---0-3-0-5-0---0-232-|
PM   *   *   *   *     *   *   *   *   * 

Verses
E|-----------------------------------------|
B|-----------------------------------------|
G|-----------------------------------------|
D|-4444----------------5555----------------|
A|-2222-5555-7777-4444-3333-7777-444555444-|
E|------3333-5555-2222------5555-222333222-|
PM **** **** **** **** **** **** ********* 

Chorus (fast distortion)
E|---------------------------------------------------|
B|---------------------------------------------------|
G|---------------------------------------------------|
D|-----765-------------3-----5-----567-----3---------|
A|-345-543-567-543-345-1-875-3-543-345-345-1-5757532-|
E|-123-----345-321-123---653---321-----123---3535310-|
Добавлено: 19.08.2013
Другие материалы по этой песне:
  • Аккорды и текст

Страница создана 19.08.2013
http://primanota.ru/washya/peaceful-wars-chords.htm
Привет, Гость.
Предлагаем пройти революционный курс по гитаре.
Подарок от PrimaNota.Ru, забирай!