PrimaNota.ru - самый крупный в мире бесплатный архив песенных текстов, аккордов, табулатур и нот


Washya - Matters Not - таба, видео

Регистрация Запомнить меня
Войти через:  Facebook Google Twitter Vk Yandex Mail.ru

Washya - Matters Not - таба, видео

Печатать
Просмотров: 50
-------------------------------------------------------------------------------
                Matters Not - Washya
-------------------------------------------------------------------------------
Tuning: Drop D (DADGBE)
Intro
E|---------------------------------------------|
B|---------------------------------------------|
G|---------------------------------------------|
D|---------------------------------------------|
A|-0-2-3-0-3-5-0-2-3-0-5-0-2-3-0-3-5-0-2-3-0-5-|
D|-0-2-3-0-3-5-0-2-3-0-5-0-2-3-0-3-5-0-2-3-0-5-|

Verses
E|-------------------------------------------|
B|-------------------------------------------|
G|-------------------------------------------|
D|-------------------------------------------|
A|-0-2-3-0-3-5-0-2-3-0-5-0-2-3-0-3-5/8888888-|
D|-0-2-3-0-3-5-0-2-3-0-5-0-2-3-0-3-5/8888888-|
PM * * * * * * * * * * * * * * * *  

Chorus
E|------------------------------------------------------------------|
B|------------------------------------------------------------------|
G|------------------------------------------------------------------|
D|------------------------------------------------------------------|
A|-777-888-777-888-55-5-222/333/5555-77-777-55555-77-777--777-888-5-|
D|-777-888-777-888-55-5-222/333/5555-77-777-55555-77-777--777-888-5-|

Lead
E|-----1212-----1212-----1212/15~-15p12----12h15p12----12h15p12----12/17~-|
B|-----1212-----1212-----1212-----------15----------14----------15--------|
G|-15b------15b------15b--------------------------------------------------|
D|------------------------------------------------------------------------|
A|------------------------------------------------------------------------|
D|------------------------------------------------------------------------|
Добавлено: 19.07.2013
Другие материалы по этой песне:
  • Аккорды и текст

Страница создана 19.07.2013
http://primanota.ru/washya/matters-not-chords.htm
Привет, Гость.
Предлагаем пройти революционный курс по гитаре.
Подарок от PrimaNota.Ru, забирай!