PrimaNota.ru - самый крупный в мире бесплатный архив песенных текстов, аккордов, табулатур и нот


Washya - Medicine Ball - таба, видео

Регистрация Запомнить меня
Войти через:  Facebook Google Twitter Vk Yandex Mail.ru

Washya - Medicine Ball - таба, видео

Печатать
Просмотров: 53
-----------------------------------------------------------------------------
                   Medicine Ball - Washya
-----------------------------------------------------------------------------
Tuning: Drop D (EBGDAD)
Intro 1
E|--------------------------------|
B|--------------------------------|
G|--------------------------------|
D|--------------------------------|
A|-000000023--000000023-000000023-|
D|-000000023--000000023-000000023-|x4

Intro 2/Verses                     Part 2
E|----------------------------|   |---------------|
B|----------------------------|   |---------------|
G|----------------2-------2/3-|   |---------------|
D|------------2h3---------2/3-|   |---------------|
A|------0h2p0-------0h2h3-----|   |-6-5-3-1h3p1-0-|
D|-//xx-----------------------|x7 |-6-5-3-1h3p1-0-|
PM                                  * * *  

Chorus
E|------------------------------------------------------------|
B|------------------------------------------------------------|
G|------------------------------------------------------------|
D|-------2/3---------2-------2/3-------0h2h3-------4/5------2-|
A|-------2/3-0h2h3-0---------2/3-0h2h3-------------2/3-3223-2-|
D|-0h2h3---------------0h2h3-----------------0h2h3-----3223---|
PM *****               *****                 ***** 

Breakdown (played Fast heavily palm muted))
E|-------------------------------------------|
B|-------------------------------------------|
G|-------------------------------------------|
D|-------------------------------------------|
A|-0-3-5-6-0-3-5-0-1-3-4-0-5-6-0-3-5-0-1-3-0-|
D|-0-3-5-6-0-3-5-0-1-3-4-0-5-6-0-3-5-0-1-3-0-|x3
PM * * * * * * * * * * * * * * * * * * * * * 

Solo
E|-22b-22b-22b-22b-22b-22b\-21h22p21h19h21p19-------------------------------|
B|---------------------21b\-------------------21h22p21p19-------------------|
G|--------------------------------------------------------20p19p17----------|
D|-----------------------------------------------------------------19p18p16-|
A|--------------------------------------------------------------------------|
D|--------------------------------------------------------------------------|

E|-------------------------------------------------------------------7b-|
B|---------------------------------------9b-9b-9b-9b---------7-8-7-5-7b-|
G|---------------------------------------9b-9b-9b-9b\5---7-5------------|
D|-19p18p16--------------------------------------------7----------------|
A|----------17p16p14----------------------------------------------------|
D|-------------------15p13p12h15p13p12~~--------------------------------|

E|-7p5p4-----7p5p4-----7p5p4-----7p5p4---8p7p5h8p7p5----8p7p5h8p7p5----|
B|-------5h7-------5h7-------5h7-------5-------------7b-------------7b-|
G|---------------------------------------------------7b-------------7b-|
D|---------------------------------------------------------------------|
A|---------------------------------------------------------------------|
D|---------------------------------------------------------------------|

E|-----------10h13p12p10----10h13p12p10----10h13p12p10----------12----------|
B|-10b~~-/12--------------12------------12-------------12-15p13----13-------|
G|--------------------------------------------------------------------14h16-|
D|--------------------------------------------------------------------------|
A|--------------------------------------------------------------------------|
D|--------------------------------------------------------------------------|

Breakdown (played Fast heavily palm muted)(fadeout til end)
E|-------------------------------------------|
B|-------------------------------------------|
G|-------------------------------------------|
D|-------------------------------------------|
A|-0-3-5-6-0-3-5-0-1-3-4-0-5-6-0-3-5-0-1-3-0-|
D|-0-3-5-6-0-3-5-0-1-3-4-0-5-6-0-3-5-0-1-3-0-|x3
PM * * * * * * * * * * * * * * * * * * * * * 
Добавлено: 21.06.2013
Другие материалы по этой песне:
  • Аккорды и текст

Страница создана 21.06.2013
http://primanota.ru/washya/medicine-ball-chords.htm
Привет, Гость.
Предлагаем пройти революционный курс по гитаре.
Подарок от PrimaNota.Ru, забирай!