PrimaNota.ru - самый крупный в мире бесплатный архив песенных текстов, аккордов, табулатур и нот


Washya - Initiation - таба, видео

Регистрация Запомнить меня
Войти через:  Facebook Google Twitter Vk Yandex Mail.ru

Washya - Initiation - таба, видео

Печатать
Просмотров: 70
Уроки эстрадного вокала в Санкт-Петербурге
-----------------------------------------------------------------------------
                      Initiation - Washya
-----------------------------------------------------------------------------
Tuning: Drop D (DADGBE)
Intro
E|----------------------------------|
B|----------------------------------|
G|-------7---9---10---5---7---8---3-|
D|-------7---9---10---5---7---8---3-|
A|-00000-5---7---8----3---5---6---1-|
D|-00000---0---0----0---0---0---0---|
PM *****   *   *    *   *     * 

Verses
E|-----------------------|
B|-----------------------|
G|-----------7-6-5-------|
D|-----------7-6-5-------|
A|-----------5\4\3-1/3/5-|
D|-0h3p0h3h5-------1/3/5-|
PM ********* 

Chorus
E|----------------------------------------------------------|
B|----------------------------------------------------------|
G|---------------------------------7777-7777-55-------------|
D|---------------------------------7777-7777-55-------------|
A|-0-3-5-7-0-1-3-5-0-3-5-7-0-1-3-5-5555-5555-33-3-5-6-5-3-1-|
D|-0-3-5-7-0-1-3-5-0-3-5-7-0-1-3-5--------------3-5-6-5-3-1-|
PM                                              * * * * * 

Interlude
E|---------------------------|
B|---------------------------|
G|---------------------------|
D|---------------------------|
A|-5h777-7\3-2h3/8\\-0000000-|
D|-5h777-7\3-2h3/8\\-0000000-|
PM                   *******
Добавлено: 05.12.2013
Другие материалы по этой песне:
  • Аккорды и текст

Страница создана 05.12.2013
http://primanota.ru/washya/initiation-chords.htm
Привет, Гость.
Предлагаем пройти революционный курс по гитаре.
Подарок от PrimaNota.Ru, забирай!