PrimaNota.ru - самый крупный в мире бесплатный архив песенных текстов, аккордов, табулатур и нот


Washya - Instrumental - таба, видео

Регистрация Запомнить меня
Войти через:  Facebook Google Twitter Vk Yandex Mail.ru

Washya - Instrumental - таба, видео

Печатать
Просмотров: 74
-----------------------------------------------------------------------------
                   Instrumental - washya
-----------------------------------------------------------------------------
Tuning: D Standard (DAFCGD)
D|--------------------------------------------------------------------------|
A|-------------------------------------------------------------------8p7-10-|
F|-11-11~----9-11-----9h11-9h11-11-11-11-11-11p9----11p9-11p9----11p9-------|
C|--------11------9p8----------------------------11-----------11------------|
G|--------------------------------------------------------------------------|
D|--------------------------------------------------------------------------|

D|----12----13b-13b----12----15b-15b-15p13----13h15p13----------------------|
A|-10----10---------10----10---------------14----------14-------------------|
F|--------------------------------------------------------13-12-15----------|
C|-----------------------------------------------------------------13-12-10-|
G|--------------------------------------------------------------------------|
D|--------------------------------------------------------------------------|

D|------------------------------------------------------------------5-3-5-|
A|------------------------------------------------------------------5-3-5-|
F|-------------------------------------7bp5-------------8p7p5-8p7p5-------|
C|-8p7h8h10-----999\888\777\555-3-5-5b----------7h8p7p5-------------------|
G|----------8-7-----------------------------5h7---------------------------|
D|------------------------------------------------------------------------|

D|-3-5/7-7h8h10p8p7-------------------------------------------------------7-|
A|-3-5--------------10p8p7----8p7--------------------------------------8----|
F|-------------------------10-----10p8p7-----------------------------9------|
C|---------------------------------------10p8p7----8p7--------10p8p7--------|
G|----------------------------------------------10-----10p8p7---------------|
D|--------------------------------------------------------------------------|

D|-7b~-7h10p7----7h10p7----7h10p7-------13b-13h15p13h15p13\11h13p11h13-|
A|------------10--------10--------10/12--------------------------------|
F|---------------------------------------------------------------------|
C|---------------------------------------------------------------------|
G|---------------------------------------------------------------------|
D|---------------------------------------------------------------------|

D|-11\9h11p9h11p9h11p9\7------------------------10h12p10h13p10h12p10h13/15~-|
A|-----------------------9p7p6---7p6h7------9p8-----------------------------|
F|-----------------------------8-------8/10---------------------------------|
C|--------------------------------------------------------------------------|
G|--------------------------------------------------------------------------|
D|--------------------------------------------------------------------------|
Добавлено: 29.09.2013
Другие материалы по этой песне:
  • Аккорды и текст

Страница создана 29.09.2013
http://primanota.ru/washya/instrumental-chords.htm
Привет, Гость.
Предлагаем пройти революционный курс по гитаре.
Подарок от PrimaNota.Ru, забирай!