PrimaNota.ru - самый крупный в мире бесплатный архив песенных текстов, аккордов, табулатур и нот


Washya - Heavier Produce - таба, видео

Регистрация Запомнить меня
Войти через:  Facebook Google Twitter Vk Yandex Mail.ru

Washya - Heavier Produce - таба, видео

Печатать
Просмотров: 56
-------------------------------------------------------------------------------
                   Heavier Produce - Washya
-------------------------------------------------------------------------------
Tuning: Drop D (DADGBE)
Intro
E|-----------------------------------------------------------|
B|-----------------------------------------------------------|
G|-----------------------------------------------------------|
D|-------------------555\44-------------------5555-5555------|
A|-00-3-00-5-00-1-00-333\22-00-3-00-5-00-1-00-3333-3333-11/3-|
D|-00-3-00-5-00-1-00--------00-3-00-5-00-1-00-----------11/3-|

Verses
E|-------------------------------|
B|-------------------------------|
G|-------------------------------|
D|-------------------------------|
A|-0-000-3-0-000-3-0-1-3-5-3-1-0-|
D|-0-000-3-0-000-3-0-1-3-5-3-1-0-|

Chorus
E|----------------------------------------------------------------------|
B|----------------------------------------------------------------------|
G|---------------------------777\55-55--------------333/55-55-----------|
D|----------------------------------------------------------------------|
A|-00-3-00-5-00-1-00-1/3/5-0-555\33-33-00-5-0-1-0-3-111/33-33-0-6-5-3-1-|
D|-00-3-00-5-00-1-00-1/3/5-0-----------00-5-0-1-0-3-----------0-6-5-3-1-|

Solo
E|-12b-12b---------15-13----13-15-13----------------13h15p13-------12b-|
B|-13b-13b-13~~-13-------14----------14p12----12h14----------14p12-13b-|
G|-----------------------------------------14--------------------------|
D|---------------------------------------------------------------------|
A|---------------------------------------------------------------------|
D|---------------------------------------------------------------------|

E|-12b-12b-13b-13b-13b--------|
B|-13b-13b-15b-15b-15b-15b~~~-|
G|----------------------------|
D|----------------------------|
A|----------------------------|
D|----------------------------|

Intro
E|-----------------------------------------------------------|
B|-----------------------------------------------------------|
G|-----------------------------------------------------------|
D|-------------------555\44-------------------5555-5555------|
A|-00-3-00-5-00-1-00-333\22-00-3-00-5-00-1-00-3333-3333-11/3-|
D|-00-3-00-5-00-1-00--------00-3-00-5-00-1-00-----------11/3-|

Verses
E|-------------------------------|
B|-------------------------------|
G|-------------------------------|
D|-------------------------------|
A|-0-000-3-0-000-3-0-1-3-5-3-1-0-|
D|-0-000-3-0-000-3-0-1-3-5-3-1-0-|

Chorus
E|----------------------------------------------------------------------|
B|----------------------------------------------------------------------|
G|---------------------------777\55-55--------------333/55-55-----------|
D|----------------------------------------------------------------------|
A|-00-3-00-5-00-1-00-1/3/5-0-555\33-33-00-5-0-1-0-3-111/33-33-0-6-5-3-1-|
D|-00-3-00-5-00-1-00-1/3/5-0-----------00-5-0-1-0-3-----------0-6-5-3-1-|
Добавлено: 09.10.2013
Другие материалы по этой песне:
  • Аккорды и текст

Страница создана 09.10.2013
http://primanota.ru/washya/heavier-produce-chords.htm
Привет, Гость.
Предлагаем пройти революционный курс по гитаре.
Подарок от PrimaNota.Ru, забирай!