PrimaNota.ru - самый крупный в мире бесплатный архив песенных текстов, аккордов, табулатур и нот


Washya - Gates Of Hell - таба, видео

Регистрация Запомнить меня
Войти через:  Facebook Google Twitter Vk Yandex Mail.ru

Washya - Gates Of Hell - таба, видео

Печатать
Просмотров: 90
Уроки эстрадного вокала в Санкт-Петербурге
-----------------------------------------------------------------------------
                        Gates Of Hell - Washya
-----------------------------------------------------------------------------
Tuning: Standard (EBGDAE)
Intro
E|-----------2---------------------2-----------------------------2-|
B|---------2---2-----------------2---2---------------3-----------2-|
G|-------3-------3-------------3-------3-----------4---------3---3-|
D|-----4-----------4---------4-----------4-------4---------4-----4-|
A|---4---------------4-----4---------------4---2---------4-------4-|
E|-2-------------------2-2-------------------2---------2-------2-2-|


Main Riff
E|----------------------------------------------------|
B|----------------------------------------------------|
G|----------------5*-----9*----------9------------11*-|
D|----------7p5----------------------------7*---------|
A|-2------------5----5h7----2----------7h9----7h9-----|
E|-0-000000-----------------0-000000------------------|
PM   ******                   ****** 

Part 2
E|------------------------------------------|
B|------------------------------------------|
G|------------------------------------------|
D|--------2-3-4-3-2---------------5-6-5-3---|
A|-22-3-4-0-1-2-1-0-2-3-5--22-3-4-3-4-3-1-3-|
E|-00-1-2-----------0-1-3--00-1-2---------1-|
PM **                      ** 

Verses (play through all verses)
E|-----------2---------------------2-----------------------------2-|
B|---------2---2-----------------2---2---------------3-----------2-|
G|-------3-------3-------------3-------3-----------4---------3---3-|
D|-----4-----------4---------4-----------4-------4---------4-----4-|
A|---4---------------4-----4---------------4---2---------4-------4-|
E|-2-------------------2-2-------------------2---------2-------2-2-|

Chorus
E|--------------------------------------------------------------------|
B|--------------------------------------------------------------------|
G|-----------------------5-55-5h7-8p7p5--------------------5-55-4/5---|
D|-4-4h5p4p2-3-----------5-55-----------7-7-77-------------5-55-4/5-2-|
A|-4---------3-------1h2-3-33-------------7-77---3p2-----3-3-33-2/3-2-|
E|-2---------1-0h1h3----------------------5-55-5-----3h5------------0-|
PM             ***** ***                       * *** ***          

Solo
E|---------------------------------------------------------------------12b-|
B|---------------------------------------------------------------10h11h13b-|
G|-------------------------------------------------8h9h11-8h9h11-----------|
D|-------------------------------------6h7h9-6h7h9-------------------------|
A|-------------4h6h7-4h6h7-------5h6h8-------------------------------------|
E|-3h4h6-3h4h6-------------5h6h8-------------------------------------------|
PM ***** ***** ***** ***** ***** ***** ***** ***** ****** *******

E|-----12-----12-----12-----12h15b-17171717p15p12h17171717p15p12h18p15p12/-|
B|-13b----13b----13b----13b------------------------------------------------|
G|-------------------------------------------------------------------------|
D|-------------------------------------------------------------------------|
A|-------------------------------------------------------------------------|
E|-------------------------------------------------------------------------|

E|-19b-18h19p17~-17h21p17----17h19p17----17h21p17----18h20p18h20p18h20-20B-|
B|------------------------21----------19----------21-----------------------|
G|-------------------------------------------------------------------------|
D|-------------------------------------------------------------------------|
A|-------------------------------------------------------------------------|
E|-------------------------------------------------------------------------|

E|-19h20p19----19------------------------------------------------|
B|----------20----20p19----19------------------------------------|
G|----------------------20----20p19----19------------------------|
D|----------------------------------20----20p19----19------------|
A|----------------------------------------------20----20p19------|
E|----------------------------------------------------------20~--|

E|-------------------------------------------------------------------------|
B|-------------------------------------------------------------------------|
G|-------------------------------------------------------15h16h19p15h16h19-|
D|-------------------------------------14h15h18p14h15h18-------------------|
A|-------------------13h14h17p13h14h17-------------------------------------|
E|-12h13h16p12h13h16-------------------------------------------------------|

E|-------------------17h18h21p17h18h21-21p18p17h21p18p17h21p18p17h22-22-22~-|
B|-16h17h20p16h17h20--------------------------------------------------------|
G|--------------------------------------------------------------------------|
D|--------------------------------------------------------------------------|
A|--------------------------------------------------------------------------|
E|--------------------------------------------------------------------------|
Добавлено: 30.08.2013
Другие материалы по этой песне:
  • Аккорды и текст

Страница создана 30.08.2013
http://primanota.ru/washya/gates-of-hell-chords.htm
Привет, Гость.
Предлагаем пройти революционный курс по гитаре.
Подарок от PrimaNota.Ru, забирай!