PrimaNota.ru - самый крупный в мире бесплатный архив песенных текстов, аккордов, табулатур и нот


Washya - Frozen Wave - таба, видео

Регистрация Запомнить меня
Войти через:  Facebook Google Twitter Vk Yandex Mail.ru

Washya - Frozen Wave - таба, видео

Печатать
Просмотров: 56
-----------------------------------------------------------------------------
           Frozen Wave - Washya
-----------------------------------------------------------------------------
Tuning: Drop C (DAFCGC)
Intro
D|-----------------------------------|
A|-----------------------------------|
F|-----------------------------------|
C|-----------------------------------|
G|-0000-00-7-7-0000-00-7h8-7-0000-00-|
C|-0000-00-7-7-0000-00-7---7-0000-00-|x3
PM **** **     **** **       **** ** 

Verses
D|------------------------------------------------------------------|
A|------------------------------------------------------------------|
F|----------3h5-----------------------------------------------------|
C|--------------5h6-----------------3h5-----------------5h7---------|
G|-0000-3h5---------0000-00-3h5-5h6-----1h3-0000-00-7h8-----3h5-1h3-|
C|-0000-------------0000-00-----------------0000-00-------------1h3-|
PM ****             **** **                 **** ** 

Part 2 
D|------------------------------------------------------------------|
A|------------------------------------------------------------------|
F|------------------------------------------------------------------|
C|----------5/7-7/8-----------------5/7-----------------7/9---------|
G|-0000-3h5-3/5-5/6-0000-00-3h5-5h6-3/5-1h3-0000-00-7h8-5/7-3h5-1h3-|
C|-0000-3h5---------0000-00-3h5-5h6-----1h3-0000-00-7h8-----3h5-1h3-|
PM ****             **** **                 **** ** 

Part 3
D|--------------------------------------------|
A|--------------------------------------------|
F|--------------------------------------------|
C|--------------------------------------------|
G|-0000-0000--0000-0000--0000-0000--0000-0000-|
C|-0000-0000--0000-0000--0000-0000--0000-0000-|
PM **** ****  **** ****  **** ****  **** **** 

Chorus
D|------------------------------------------------------------------------|
A|------------------------------------------------------------------------|
F|----------2h3----------------------5---4---5---4--------6p5-------------|
C|--------------5p3p2-----------------------------------------3h6---------|
G|-00000000-----------5p2-2-222222-2---2---2---2---444444---------5p3-333-|
C|-00000000---------------2-222222-----------------444444-------------333-|
PM ********                 ****** *   *   *   *   ******             *** 

Verses
D|------------------------------------------------------------------|
A|------------------------------------------------------------------|
F|----------3h5-----------------------------------------------------|
C|--------------5h6-----------------3h5-----------------5h7---------|
G|-0000-3h5---------0000-00-3h5-5h6-----1h3-0000-00-7h8-----3h5-1h3-|
C|-0000-------------0000-00-----------------0000-00-------------1h3-|
PM ****             **** **                 **** ** 


Part 2 
D|------------------------------------------------------------------|
A|------------------------------------------------------------------|
F|------------------------------------------------------------------|
C|----------5/7-7/8-----------------5/7-----------------7/9---------|
G|-0000-3h5-3/5-5/6-0000-00-3h5-5h6-3/5-1h3-0000-00-7h8-5/7-3h5-1h3-|
C|-0000-3h5---------0000-00-3h5-5h6-----1h3-0000-00-7h8-----3h5-1h3-|
PM ****             **** **                 **** ** 


Part 3
D|--------------------------------------------|
A|--------------------------------------------|
F|--------------------------------------------|
C|--------------------------------------------|
G|-0000-0000--0000-0000--0000-0000--0000-0000-|
C|-0000-0000--0000-0000--0000-0000--0000-0000-|
PM **** ****  **** ****  **** ****  **** **** 

Добавлено: 02.11.2013
Другие материалы по этой песне:
  • Аккорды и текст

Страница создана 02.11.2013
http://primanota.ru/washya/frozen-wave-chords.htm
Привет, Гость.
Предлагаем пройти революционный курс по гитаре.
Подарок от PrimaNota.Ru, забирай!