PrimaNota.ru - самый крупный в мире бесплатный архив песенных текстов, аккордов, табулатур и нот


Washya - Fruit Elexia - таба

Регистрация Запомнить меня
Войти через:  Facebook Google Twitter Vk Yandex Mail.ru

Washya - Fruit Elexia - таба

Печатать
Просмотров: 59
-----------------------------------------------------------------------------
                       Fruit Elexia - Washya
-----------------------------------------------------------------------------
Tuning: Standard (ebgDAE)
Intro               
e|-------------------------|-------------------------|
b|-------------------------|-------------------------|
g|-------------------------|-------------------------|
D|-------------------------|-------------------------|
A|-------------------------|-44-7-4-6-4-7-4-6-44-456-|
E|-22-5-2-4-2-5-2-4-22-234-|-22-5-2-4-2-5-2-4-22-234-|
PM ** * * * * * * * ** *** 

Verses
e|----------------------------------------------------|
b|----------------------------------------------------|
g|----------------------------------------------------|
D|----------------------------------------------------|
A|----5---6---8---6----33h5----5---6---8---10----55/7-|
E|-00---0---0---0---00------00-3-0-4-0-6-0-8--00-33/5-|
PM **   *   *   *   **      **   *   *   *    ** 

Chorus
e|----------------------------------------------------------------------|
b|----------------------------------------------------------------------|
g|---------5~--------------------------------7~-------------------------|
D|-----6------6h7p6----------------------8------8h9p8-------------------|
A|---6----------------6-666666/88888---8----------------8-888888\666666-|
E|-4-----4----------4---444444/66666-6-----6----------6---666666\444444-|
PM * * * *          * *              * * * *          * *     

e|----------------------------------------------------------------------|
b|----------------------------------------------4~----------------------|
g|---------0~-------------------------------5------5h6p5----------------|
D|-----2------2h3p2p0---------------------5------------------77777-9999-|
A|---2------------------2-222222/555555-3-----3------------5-55555-7777-|
E|-0-----0------------0---000000/333333------------------3--------------|
PM * * * *            * *               * * * *          * * 
Добавлено: 20.11.2013
Другие материалы по этой песне:
  • Аккорды и текст

Страница создана 20.11.2013
http://primanota.ru/washya/fruit-elexia-chords.htm
Привет, Гость.
Предлагаем пройти революционный курс по гитаре.
Подарок от PrimaNota.Ru, забирай!