PrimaNota.ru - самый крупный в мире бесплатный архив песенных текстов, аккордов, табулатур и нот


Washya - Far Cry - таба, видео

Регистрация Запомнить меня
Войти через:  Facebook Google Twitter Vk Yandex Mail.ru

Washya - Far Cry - таба, видео

Печатать
Просмотров: 65
Уроки эстрадного вокала в Санкт-Петербурге
-----------------------------------------------------------------------------
                          Far Cry - Washya
-----------------------------------------------------------------------------
Tuning: Drop C (DAFCGC)
Intro
D|-----------------------------------|
A|-----------------------------------|
F|-----------------------------------|
C|-----------------------------------|
G|-7777-101010-999--5555-111-222-333-|
C|-7777-101010-999--5555-111-222-333-|x3
PM **** ****** ***  **** *** *** *** 

Verses (second time palm mute)
D|-------------------------------------------------------------|
A|-------------------------------------------------------------|
F|-------------------------------------------------------------|
C|-------------------------------------------------------------|
G|-7777-101010-999-5555-111-222-333--6666-888-5555-765765-1111-|
C|-7777-101010-999-5555-111-222-333--6666-888-5555-765765-1111-|
PM **** ****** *** **** *** *** ***  **** *** **** ****** **** 

Chorus
D|-------------------------------------------------------------------------|
A|-------------------------------------------------------------------------|
F|-------------------------------------------------------------------------|
C|-------------------------------------------------------------------------|
G|-7777777777/101010101010\9999999\5555555\1111/222/3333/66666/88888\55555-|
C|-7777777777/101010101010\9999999\5555555\1111/222/3333/66666/88888\55555-|

D|--------------|
A|--------------|
F|--------------|
C|--------------|
G|-765765-11111-|
C|-765765-11111-|

Lead
D|----------------------------------8b--8b--8b--12b/15b/17b-|
A|----------------------------------10b-10b-10b/15b/17b/19b-|
F|-7b----------7---7----------10h12-------------------------|
C|-9b-9b-9b-9b---9---9-9b/12b-------------------------------|
G|----------------------------------------------------------|
C|----------------------------------------------------------|

Tuning: Drop C (DAFCGC)
Intro
D|-----------------------------------|
A|-----------------------------------|
F|-----------------------------------|
C|-----------------------------------|
G|-7777-101010-999--5555-111-222-333-|
C|-7777-101010-999--5555-111-222-333-|x3
PM **** ****** ***  **** *** *** *** 

Verses (second time palm mute)
D|-------------------------------------------------------------|
A|-------------------------------------------------------------|
F|-------------------------------------------------------------|
C|-------------------------------------------------------------|
G|-7777-101010-999-5555-111-222-333--6666-888-5555-765765-1111-|
C|-7777-101010-999-5555-111-222-333--6666-888-5555-765765-1111-|
PM **** ****** *** **** *** *** ***  **** *** **** ****** **** 

Chorus
D|-------------------------------------------------------------------------|
A|-------------------------------------------------------------------------|
F|-------------------------------------------------------------------------|
C|-------------------------------------------------------------------------|
G|-7777777777/101010101010\9999999\5555555\1111/222/3333/66666/88888\55555-|
C|-7777777777/101010101010\9999999\5555555\1111/222/3333/66666/88888\55555-|

D|--------------|
A|--------------|
F|--------------|
C|--------------|
G|-765765-11111-|
C|-765765-11111-|
Добавлено: 04.12.2013
Другие материалы по этой песне:
  • Аккорды и текст

Страница создана 04.12.2013
http://primanota.ru/washya/far-cry-chords.htm
Привет, Гость.
Предлагаем пройти революционный курс по гитаре.
Подарок от PrimaNota.Ru, забирай!