PrimaNota.ru - самый крупный в мире бесплатный архив песенных текстов, аккордов, табулатур и нот


Washya - Exhibitionist - таба

Регистрация Запомнить меня
Войти через:  Facebook Google Twitter Vk Yandex Mail.ru

Washya - Exhibitionist - таба

Печатать
Просмотров: 58
-----------------------------------------------------------------------------
         Exhibitionist - Washya
-----------------------------------------------------------------------------
Tuning: Drop D (DADGBE)
Intro
E|-------------------------------------------|
B|-------------------------------------------|
G|-------------------------------------------|
D|---------5---------------------55-5-5------|
A|-----5h6---6p5p3h5-5-5h6p5-3h5-33-3-3-33/5-|
D|-0-0----------------------------------33/5-|
PM * *  

Part 2
E|------------------------------------|
B|------------------------------------|
G|------------------------------------|
D|----------7~----------4~------------|
A|-00---7h8----00---4h5----44-4-4/777-|
D|-00-0--------00-0--------44-4-4/777-|
PM ** *        ** *  

Verses
E|-------------------------------------------------------------|
B|-------------------------------------------------------------|
G|-------------------------------------------------------------|
D|----------------------------------------------------------7~-|
A|-666-333---------555-222---------222-000-11-1-1/333---5h6----|
D|---------555-666---------444-555---------11-1-1/333-0--------|
PM *** *** *** *** *** *** *** *** *** ***            * 

Chorus
E|---------------------------------------------------|
B|---------------------------------------------------|
G|---------------------------------------------------|
D|-99999999--------------------3333-555--------------|
A|-77777777-7777-5555-777-3333-1111-333-11-1-1-1/333-|
D|----------7777-5555-777-3333----------11-1-1-1/333-|

Добавлено: 02.10.2013
Другие материалы по этой песне:
  • Аккорды и текст

Страница создана 02.10.2013
http://primanota.ru/washya/exhibitionist-chords.htm
Привет, Гость.
Предлагаем пройти революционный курс по гитаре.
Подарок от PrimaNota.Ru, забирай!