PrimaNota.ru - самый крупный в мире бесплатный архив песенных текстов, аккордов, табулатур и нот


Washya - Fade - таба, видео

Регистрация Запомнить меня
Войти через:  Facebook Google Twitter Vk Yandex Mail.ru

Washya - Fade - таба, видео

Печатать
Просмотров: 83
-----------------------------------------------------------------------------
                              Fade - Washya
-----------------------------------------------------------------------------

Tuning: Drop D (DADGBE) 
Intro
e|------------------------------------------|
b|------------------------------------------|
g|----------5----------2--------------------|
D|------5----------2----------4---5-4-----2-|
A|----6---4------3---1------2---2-----2-4---|
D|-00---------00---------00-----------------|
pm ..         ..         .. 

Verses
e|-------------------------|
b|-------------------------|
g|-------------------------|
D|-0-0-------1p0-------3-5-|
A|-0-0-0-1-3-------1p0-3-5-|
D|-0-0-----------3-----3-5-|
pm . .                          

Chorus
e|--------------------------------------------------------------|
b|--------------------------------------------------------------|
g|--------------------------------------------------------------|
D|------5-55-5-----------4-44-44-4-----------------3-33-3-3-----|
A|-2222-3-33-3-5555-1111-2-22-22-2-4-444-4-2-22-22-1-11-1-1-3-5-|
D|-2222--------5555-1111-----------4-444-4-2-22-22----------3-5-|

Interlude
e|-------------------------------------------------------|
b|-------------------------------------------------------|
g|-------------------------------------------------------|
D|-------------------555-5-444-4-------333-3-------------|
A|-555-5-777-7-333-3-333-3-222-2-111-1-111-1-1---------0-|
D|-555-5-777-7-333-3-------------111-1---------3p1p0h1p0-|
pm ... . ... . ... . ... . ... . ... . ... . . . . . .  
Добавлено: 02.06.2013
Другие материалы по этой песне:
  • Аккорды и текст

Страница создана 02.06.2013
http://primanota.ru/washya/fade-chords.htm
Привет, Гость.
Предлагаем пройти революционный курс по гитаре.
Подарок от PrimaNota.Ru, забирай!